PrimaNota.ru - самый крупный в мире бесплатный архив песенных текстов, аккордов, табулатур и нот


Kittie - Slow Motion - текст песни, таба, видео

Регистрация Запомнить меня
Войти через:  Facebook Google Twitter Vk Yandex Mail.ru

Kittie - Slow Motion - текст песни, таба, видео

Печатать
Просмотров: 73
-------------------------------------------------------------------------------
                        Slow Motion - Kittie
-------------------------------------------------------------------------------
Tabbed by: MetalVamptress
E-mail: MetalVamptress@yahoo.com

I couldn't find this tab anywhere so I tabbed it out. I only tabbed Morgan's guitar. 
Rate & comment, tell me what you think. Don't be a dick!

Tuning: Drop C

Verse1 (Rep 2x)
D|-----------------------------|  |-------------------------------------|
A|-----------------------------|  |-------------------------------------|
F|-----------------10\9---5/7--|x |-------------------------------------|
C|-0-0-------------x--x---x-x--|3 |3---------------5--------------------|
G|-0-0-------------8-\7---3/5--|  |3-3-333-3-333-3-5-5-555-5-555-5------|
C|-0-0-000-0-000-0------0------|  |3-3-333-3-333-3-5-5-555-5-555-5------|
       ... . ... .      .            . ... . ... .   . ... . ... .

D|-----------------------------|  |-------------------------------------|
A|-----------------------------|  |-------------------------------------|
F|-----------------10\9---5/7--|x |-------------------------------------|
C|-0-0-------------x--x---x-x--|3 |3---------------5--------------------|
G|-0-0-------------8-\7---3/5--|  |3-3-333-3-333-3-5-5-555-5-555-5------|
C|-0-0-000-0-000-0------0------|  |3-3-333-3-333-3-5-5-555-5-555-5------|
       ... . ... .      .            . ... . ... .   . ... . ... .

D|------------------------------------------------------------------|
A|------------------------------------------------------------------|
F|------------------------------------------------------------------|
C|------------------------------------------------------------------|
G|-3-333-333-333-333-333-333-333-5-555-555-555-555-555-555-555------|
C|-3-333-333-333-333-333-333-333-5-555-555-555-555-555-555-555------|
   . ... ... ... ... ... ... ... . ... ... ... ... ... ... ...


Chorus
D|----------------------------------------------------------------------------|
A|----------------------------------------------------------------------------|
F|----------------------------------------------------------------------------|
C|----5---5/7----5---5/7----------5-555-555-55/7-77-8-888-88\3-333-33---------|
G|-00-3---3/5----3---3/5----------5-555-555-55/7-77-8-888-88\3-333-33---------|
C|-00---0-----00---0-----0-0000---5-555-555-55/7-77-8-888-88\3-333-33---------|
   ..   .     ..   .     . ....

D|---------------------------------------------------------|
A|---------------------------------------------------------|
F|---------------------------------------------------------|
C|-5-555-555-55/7-77-----5---5/7----5---5/7----------------|
G|-5-555-555-55/7-77--00-3---3/5----3---3/5----------------|
C|-5-555-555-55/7-77--00---0-----00---0-----0-00-000-------|
                      ..   .     ..   .     . .. ...

D|------------------------------------------|
A|------------------------------------------|
F|------------------------------------------|
C|-5-555-555-55/7-77-8-888-88\3-333-33------|
G|-5-555-555-55/7-77-8-888-88\3-333-33------|
C|-5-555-555-55/7-77-8-888-88\3-333-33------|


D|--------------------------------------------------------------------------------|
A|--------------------------------------------------------------------------------|
F|--------------------------------------------------------------------------------|
C|-5-555-555-55/7-77-----5---5/7----5---5/7----------5---5/7----5---5/7-----------|
G|-5-555-555-55/7-77--00-3---3/5----3---3/5----------3---3/5----3---3/5-----------|
C|-5-555-555-55/7-77--00---0-----00---0-----0-000-00---0-----00---0------0-00000--|
                      ..   .     ..   .     . ... ..   .     ..   .      . .....
Verse2
D|-----------------------------|  |-------------------------------------|
A|-----------------------------|  |-------------------------------------|
F|-----------------10\9---5/7--|x |-------------------------------------|
C|-0-0-------------x--x---x-x--|3 |3---------------5--------------------|
G|-0-0-------------8-\7---3/5--|  |3-3-333-3-333-3-5-5-555-5-555-5------|
C|-0-0-000-0-000-0------0------|  |3-3-333-3-333-3-5-5-555-5-555-5------|
       ... . ... .      .            . ... . ... .   . ... . ... .

D|-----------------------------|  |-------------------------------------|
A|-----------------------------|  |-------------------------------------|
F|-----------------10\9---5/7--|x |-------------------------------------|
C|-0-0-------------x--x---x-x--|3 |3---------------5--------------------|
G|-0-0-------------8-\7---3/5--|  |3-3-333-3-333-3-5-5-555-5-555-5------|
C|-0-0-000-0-000-0------0------|  |3-3-333-3-333-3-5-5-555-5-555-5------|
       ... . ... .      .            . ... . ... .   . ... . ... .

D|------------------------------------------------------------------|
A|------------------------------------------------------------------|
F|------------------------------------------------------------------|
C|------------------------------------------------------------------|
G|-3-333-333-333-333-333-333-333-5-555-555-555-555-555-555-555------|
C|-3-333-333-333-333-333-333-333-5-555-555-555-555-555-555-555------|
   . ... ... ... ... ... ... ... . ... ... ... ... ... ... ...

Chorus
D|----------------------------------------------------------------------------|
A|----------------------------------------------------------------------------|
F|----------------------------------------------------------------------------|
C|----5---5/7----5---5/7----------5-555-555-55/7-77-8-888-88\3-333-33---------|
G|-00-3---3/5----3---3/5----------5-555-555-55/7-77-8-888-88\3-333-33---------|
C|-00---0-----00---0-----0-0000---5-555-555-55/7-77-8-888-88\3-333-33---------|
   ..   .     ..   .     . ....

D|---------------------------------------------------------|
A|---------------------------------------------------------|
F|---------------------------------------------------------|
C|-5-555-555-55/7-77-----5---5/7----5---5/7----------------|
G|-5-555-555-55/7-77--00-3---3/5----3---3/5----------------|
C|-5-555-555-55/7-77--00---0-----00---0-----0-00-000-------|
                      ..   .     ..   .     . .. ...

D|------------------------------------------|
A|------------------------------------------|
F|------------------------------------------|
C|-5-555-555-55/7-77-8-888-88\3-333-33------|
G|-5-555-555-55/7-77-8-888-88\3-333-33------|
C|-5-555-555-55/7-77-8-888-88\3-333-33------|


D|--------------------------------------------------------------------------------|
A|--------------------------------------------------------------------------------|
F|--------------------------------------------------------------------------------|
C|-5-555-555-55/7-77-----5---5/7----5---5/7----------5---5/7----5---5/7-----------|
G|-5-555-555-55/7-77--00-3---3/5----3---3/5----------3---3/5----3---3/5-----------|
C|-5-555-555-55/7-77--00---0-----00---0-----0-000-00---0-----00---0------0-00000--|
                      ..   .     ..   .     . ... ..   .     ..   .      . .....
Break
D|-----------------------------------------------------------------------------------|
A|-----------------------------------------------------------------------------------|
F|-----------------------------------------------------------------------------------| Rep
C|-----------------------------------------------------------------------------------| 2x
G|-55555555-5-55-5-55--55555555-5-55-5-55--33333333-3-33-3-33-33333333-3-33-3-33-----|
C|-55555555-5-55-5-55--55555555-5-55-5-55--33333333-3-33-3-33-33333333-3-33-3-33-----|

(During Tara's solo) 
D|-------------------------|
A|-------------------------|
F|-------------------------| Rep
C|-0-0---------------------| 4x
G|-0-0-000-0-0000000-------|
C|-0-0-000-0-0000000-------|
       ... . .......
D|------------------------------------------------------------------|
A|------------------------------------------------------------------|
F|------------------------------------------------------------------|
C|------------------------------------------------------------------|
G|-3-333-333-333-333-333-333-333-5-555-555-555-555-555-555-555------|
C|-3-333-333-333-333-333-333-333-5-555-555-555-555-555-555-555------|
   . ... ... ... ... ... ... ... . ... ... ... ... ... ... ...

Chorus
D|----------------------------------------------------------------------------|
A|----------------------------------------------------------------------------|
F|----------------------------------------------------------------------------|
C|----5---5/7----5---5/7----------5-555-555-55/7-77-8-888-88\3-333-33---------|
G|-00-3---3/5----3---3/5----------5-555-555-55/7-77-8-888-88\3-333-33---------|
C|-00---0-----00---0-----0-0000---5-555-555-55/7-77-8-888-88\3-333-33---------|
   ..   .     ..   .     . ....

D|---------------------------------------------------------|
A|---------------------------------------------------------|
F|---------------------------------------------------------|
C|-5-555-555-55/7-77-----5---5/7----5---5/7----------------|
G|-5-555-555-55/7-77--00-3---3/5----3---3/5----------------|
C|-5-555-555-55/7-77--00---0-----00---0-----0-00-000-------|
                      ..   .     ..   .     . .. ...

D|------------------------------------------|
A|------------------------------------------|
F|------------------------------------------|
C|-5-555-555-55/7-77-8-888-88\3-333-33------|
G|-5-555-555-55/7-77-8-888-88\3-333-33------|
C|-5-555-555-55/7-77-8-888-88\3-333-33------|


D|--------------------------------------------------------------------------------|
A|--------------------------------------------------------------------------------|
F|--------------------------------------------------------------------------------|
C|-5-555-555-55/7-77-----5---5/7----5---5/7----------5---5/7----5---5/7-----------|
G|-5-555-555-55/7-77--00-3---3/5----3---3/5----------3---3/5----3---3/5-----------|
C|-5-555-555-55/7-77--00---0-----00---0-----0-000-00---0-----00---0------0-00000--|
                      ..   .     ..   .     . ... ..   .     ..   .      . .....

D|------------------------------------------|
A|------------------------------------------|
F|------------------------------------------|
C|-5-555-555-55/7-77-8-888-88\3-333-33------|
G|-5-555-555-55/7-77-8-888-88\3-333-33------|
C|-5-555-555-55/7-77-8-888-88\3-333-33------|


D|---------------------------------------------------------|
A|---------------------------------------------------------|
F|---------------------------------------------------------|
C|-5-555-555-55/7-77-----5---5/7----5---5/7----------------|
G|-5-555-555-55/7-77--00-3---3/5----3---3/5----------------|
C|-5-555-555-55/7-77--00---0-----00---0-----0-00-000-------|
                      ..   .     ..   .     . .. ...

D|------------------------------------------|
A|------------------------------------------|
F|------------------------------------------|
C|-5-555-555-55/7-77-8-888-88\3-333-33------|
G|-5-555-555-55/7-77-8-888-88\3-333-33------|
C|-5-555-555-55/7-77-8-888-88\3-333-33------|


D|--------------------------------------------------------------------------------|
A|--------------------------------------------------------------------------------|
F|--------------------------------------------------------------------------------|
C|-5-555-555-55/7-77-----5---5/7----5---5/7----------5---5/7----5---5/7-----------|
G|-5-555-555-55/7-77--00-3---3/5----3---3/5----------3---3/5----3---3/5-----------|
C|-5-555-555-55/7-77--00---0-----00---0-----0-000-00---0-----00---0------0000-----|
                      ..   .     ..   .     . ... ..   .     ..   .      ....

D|-------------------------------------| 
A|-------------------------------------|  
F|-----------------10\9---5/7----------|
C|-0-0-------------x--x---x-x--0-0-----| 
G|-0-0-------------8-\7---3/5--0-0-----|  
C|-0-0-000-0-000-0------0------0-0-----|  
       ... . ... .      .    


END
 
************************************

| /   slide up
| \   slide down
| h   hammer-on
| p   pull-off
| ~   vibrato
| +   harmonic
| x   Mute note
| b   Bend
| pb  Pre-bend
| br  Bend release
| pbr Pre-bend release
| brb Bend release bend

************************************
Добавлено: 02.06.2016
Другие материалы по этой песне:
  • Аккорды и текст

Страница создана 28.07.2012
http://primanota.ru/kittie/slow-motion-chords.htm
Привет, Гость.
Предлагаем пройти революционный курс по гитаре.
Подарок от PrimaNota.Ru, забирай!