PrimaNota.ru - самый крупный в мире бесплатный архив песенных текстов, аккордов, табулатур и нот


Kittie - Raven - аккорды и текст, таба, бас-таба, видео

Регистрация Запомнить меня
Войти через:  Facebook Google Twitter Vk Yandex Mail.ru

Kittie - Raven - аккорды и текст, таба, бас-таба, видео

Печатать
Просмотров: 222
Авторы музыки: Kittie
Авторы текста: Kittie
Raven
Kittie
     SONG: Raven
     BAND: Kittie
    ALBUM: Spit
   TRANSCRIBED BY: Elizabeth Sanchez (http://envy.nu/choke)
     DATE: 8/14/2000
 ---------------------------------------------------------------------------=
-------------------

TUNING: drop d and down a full step (C-G-C-F-A-D)


     RIFF A:

   D|-----------|------------------------------------------------|
   A|-----------|------------------------------------------------|
   F|-----------|------------------------------------------------|
   C|-2-2-2*-2*-|--2-2-5*-5*-0-2-2-5*-5*-0-2-2-5*-5*-0-2-2-3-3-3-|
   G|-2-2-2*-2*-|--2-2-5*-5*-0-2-2-5*-5*-0-2-2-5*-5*-0-2-2-3-3-3-|
   C|-2-2-2*-2*-|--2-2-5*-5*-0-2-2-5*-5*-0-2-2-5*-5*-0-2-2-3-3-3-|


     RIFF B:

    D|---------|
    A|---------|
    F|---------|
    C|-5-2-5-1-|
    G|-5-2-5-1-|
    C|-5-2-5-1-|


     RIFF C:

    D|---------------------------------------------|----|
    A|---------------------------------------------|----|
    F|---------------------------------------------|----|
    C|-0-0-0-0-0-0-0-0-0-0-0-0-0-0-0-0-0-0-0-0-0-0-|----|
    G|-0-0-0-0-0-0-0-0-0-0-0-0-0-0-0-0-0-0-0-0-0-0-|----|
    C|-0-0-0-0-0-0-0-0-0-0-0-0-0-0-0-0-0-0-0-0-0-0-|-5*-|
               
     RIFF D:

    D|---------------------------|---------------------------|----|
    A|---------------------------|---------------------------|----|
    F|---------------------------|---------------------------|----|
    C|-1-0-1-1-0-1-1-0-1-2-1-0-1-|-1-0-1-1-0-1-1-0-1-2-1-0-1-|-5*-|
    G|-1-0-1-1-0-1-1-0-1-2-1-0-1-|-1-0-1-1-0-1-1-0-1-2-1-0-1-|-5*-|
    C|-1-0-1-1-0-1-1-0-1-2-1-0-1-|-1-0-1-1-0-1-1-0-1-2-1-0-1-|-5*-|
       pm.......................
     
Добавлено: 28.11.2013
Другие материалы по этой песне:

Страница создана 06.06.2012
http://primanota.ru/kittie/raven-chords.htm
Привет, Гость.
Предлагаем пройти революционный курс по гитаре.
Подарок от PrimaNota.Ru, забирай!