PrimaNota.ru - самый крупный в мире бесплатный архив песенных текстов, аккордов, табулатур и нот


Kittie - Mouthful of Poison - аккорды и текст, таба, видео

Регистрация Запомнить меня
Войти через:  Facebook Google Twitter Vk Yandex Mail.ru

Kittie - Mouthful of Poison - аккорды и текст, таба, видео

Печатать
Просмотров: 90
Авторы: Kittie

Mouthful of Poison
Kittie
Artist:  Kittie
Song:  Mouthful of Poison
Album:  Oracle
Tabbed by: Ben Harper (not THE Ben Harper)
This is pretty straight forward.  the rhythms may be off but just 
listen to the CD and it'll make sense.  the bass follows the guitar 
almost exactly i think.  corrections, suggestions, or complaints can be
sent to Bharper@depauw.edu.  This is all my work and interpretation so
don't copy it and realize it's mine.  thanx

Intro:
this may be a little wrong...
D-----------------------
A-----------------------
F-----------------------
C-0-0-0-0-1-------------
G-0-0-0-0-1-------------
c-0-0-0-0-1--2--3--1--3-


Verse:
D--------------------
A--------------------
F--------------------
C-0-0-0-0-1--4--3--2-
G-0-0-0-0-1--4--3--2-
c-0-0-0-0-1--4--3--2-


Chorus:
this is played as the transition to the outro as well but it's slower
D--------------------------------------------------------------
A--------------------------------------------------------------
F--------------------------------------------------------------
C-0-0-0-0-0-1-0--0-0-0-0-0-1-0--0-0-0-0-0-1-0--2-2-3-3-1-1-2-2-
G-0-0-0-0-0-1-0--0-0-0-0-0-1-0--0-0-0-0-0-1-0--2-2-3-3-1-1-2-2-
c-0-0-0-0-0-1-0--0-0-0-0-0-1-0--0-0-0-0-0-1-0--2-2-3-3-1-1-2-2-


outro:
D--------------------
A--------------------
F--------------------
C-0-0-0-0-0-0-1--0-0-
G-0-0-0-0-0-0-1--0-0-
c-0-0-0-0-0-0-1--0-0-

     
Добавлено: 21.10.2013
Другие материалы по этой песне:

Страница создана 19.04.2012
http://primanota.ru/kittie/mouthful-of-poison-chords.htm
Привет, Гость.
Предлагаем пройти революционный курс по гитаре.
Подарок от PrimaNota.Ru, забирай!