PrimaNota.ru - самый крупный в мире бесплатный архив песенных текстов, аккордов, табулатур и нот


Kittie - Everything That Could Have Been - текст песни, таба, видео

Регистрация Запомнить меня
Войти через:  Facebook Google Twitter Vk Yandex Mail.ru

Kittie - Everything That Could Have Been - текст песни, таба, видео

Печатать
Просмотров: 78
i hope this is correct because i went over it alot
and the strumming aint accurate but its on the dot

intro/pre-chorus
D----------------------------------------------|-----------------------------|
A----------------------------------------------|-----------------------------|
F----------------------------------------------|-----------------------------|
C-5-5-5---1-1--5-5-5--7-7\-1-1---5-5-5-5-5-5-5-|-----------------------------|
G-5-5-5---1-1--5-5-5--7-7\-1-1---5-5-5-5-5-5-5-|-----------------------------|
C-5-5-5---1-1--5-5-5--7-7\-1-1---5-5-5-5-5-5-5-|-----------------------------|

verse
D----------------------------------------------------------------------------|
A----------------------------------------------------------------------------|
F----------------------------------------------------------------------------|
C-5-5-5-5--5-5-5-5-5-5-5-5-5-5-5--5-5-5-3-3-3h4-1-1-1-1-1--1-1-1-1-1-1-1-1-1-|
G-5-5-5-5--5-5-5-5-5-5-5-5-5-5-5--5-5-5-3-3-3h4-1-1-1-1-1--1-1-1-1-1-1-1-1-1-|
C-5-5-5-5--5-5-5-5-5-5-5-5-5-5-5--5-5-5-3-3-3h4-1-1-1-1-1--1-1-1-1-1-1-1-1-1-|
PM_______  _____________________    ___________________  _________________

D----------------------------------------------------------------------------|
A----------------------------------------------------------------------------|
F----------------------------------------------------------------------------|
C-1-1-1-1-3-5-5-5--5-5-5-5-5-5-5--5-5-5-5-5-5-5-5-5-5-5-5--5-5-5-3-3-3h4-1-1-|
G-1-1-1-1-3-5-5-5--5-5-5-5-5-5-5--5-5-5-5-5-5-5-5-5-5-5-5--5-5-5-3-3-3h4-1-1-|
C-1-1-1-1-3-5-5-5--5-5-5-5-5-5-5--5-5-5-5-5-5-5-5-5-5-5-5--5-5-5-3-3-3h4-1-1-|
  _______________  _____________  _______________________  _________________

D------------------------------------------------|---------------------------|
A------------------------------------------------|---------------------------|
F------------------------------------------------|---------------------------|
C-1-1--1-1-1-1-1-1-1-1-1-1-1-1--3-3-3-3-3-3-3-3-3|---------------------------|
G-1-1--1-1-1-1-1-1-1-1-1-1-1-1--3-3-3-3-3-3-3-3-3|---------------------------|
C-1-1--1-1-1-1-1-1-1-1-1-1-1-1--3-3-3-3-3-3-3-3-3|---------------------------|
  ___  _______________________

chorus
D----------------------------------------------------------------------------|
A----------------------------------------------------------------------------|
F----------------------------------------------------------------------------|
C-5-5-5-5-5-5-5-5-5-5-5-5-3-3-3-3-3-3-5-5-5-5-5-5-5-5-5-5-5-5-3-3-3-3-3-3----|
G-5-5-5-5-5-5-5-5-5-5-5-5-3-3-3-3-3-3-5-5-5-5-5-5-5-5-5-5-5-5-3-3-3-3-3-3----|
C-5-5-5-5-5-5-5-5-5-5-5-5-3-3-3-3-3-3-5-5-5-5-5-5-5-5-5-5-5-5-3-3-3-3-3-3----|


D----------------------------------------------------------------------------|
A----------------------------------------------------------------------------|
F----------------------------------------------------------------------------|
C-8-8-8-8-8-8-8-8-8-8-8-8-10-10-10-10-10-10-10-7-7-7-7-7-7-7-7-5-5-5-5-5-5-5-|
G-8-8-8-8-8-8-8-8-8-8-8-8-10-10-10-10-10-10-10-7-7-7-7-7-7-7-7-5-5-5-5-5-5-5-|
C-8-8-8-8-8-8-8-8-8-8-8-8-10-10-10-10-10-10-10-7-7-7-7-7-7-7-7-5-5-5-5-5-5-5-|


bridge i guess??????????????????????
D----------------------------------------------------------------------------|
A----------------------------------------------------------------------------|
F----------------------------------------------------------------------------|
C-5-5-5-5-5-5-5-5-5-5-5-5-5-5-5-5-5-5-5-5-5-5-6-6-6-6-6-6-6-6-6-6-6-6-6-6----|
G-5-5-5-5-5-5-5-5-5-5-5-5-5-5-5-5-5-5-5-5-5-5-6-6-6-6-6-6-6-6-6-6-6-6-6-6----|
C-3-3-3-3-3-3-3-3-3-3-3-3-3-3-3-3-3-3-3-3-3-3-3-3-3-3-3-3-3-3-3-3-3-3-3-3----|

solo rythm (not sure if this is right)
D--------------------------------------------|-------------------------------|
A--------------------------------------------|-------------------------------|
F--------------------------------------------|-------------------------------|
C-3-3-3-3-3-3-3-3-3-3-3-3-5-5-5-5-5-5-5-5-5-5|5------------------------------|
G-3-3-3-3-3-3-3-3-3-3-3-3-5-5-5-5-5-5-5-5-5-5|5------------------------------|
C-3-3-3-3-3-3-3-3-3-3-3-3-5-5-5-5-5-5-5-5-5-5|5------------------------------|
                                               let ring out


welll there it was or is whatever i dont have a machine to help me slow the tempo or 
so its kind complicated doing the strumming parts and what not
Добавлено: 28.09.2013
Другие материалы по этой песне:
  • Аккорды и текст

Страница создана 04.06.2012
http://primanota.ru/kittie/everything-that-could-have-been-chords.htm
Привет, Гость.
Предлагаем пройти революционный курс по гитаре.
Подарок от PrimaNota.Ru, забирай!