PrimaNota.ru - самый крупный в мире бесплатный архив песенных текстов, аккордов, табулатур и нот


Kitade Nana - Kesenai Tsumi - текст песни, бас-таба, видео

Регистрация Запомнить меня
Войти через:  Facebook Google Twitter Vk Yandex Mail.ru

Kitade Nana - Kesenai Tsumi - текст песни, бас-таба, видео

Печатать
Просмотров: 186
Уроки эстрадного вокала в Санкт-Петербурге
Kitade Nana - Kesenai Tsumi

Tabbed by: Ashy (XxThreeCheersxX)
E-mail: burdickash@gmail.com

Tuning: Standard

Intro (no bass)

Verse (the octaves are played very quietly; you could just play the root note instead if you want)
G|---6---6---6---6---6---6-----------------------------------|
D|-----------------------------------------------------------|
A|-4---4---4---4---4---4---4-4--6--7--7--7-7-7---------------|
E|----------------------------------------------7--7--7-7-7--|

G|---6---6---6---6---6---6----------------------------------------------------------------|
D|----------------------------------------------------------------------------------------|
A|-4---4---4---4---4---4---4-4--6--7--7--7-7-7--------------------------------------------|
E|----------------------------------------------7--7--7-7-7--5--5--5-5-5--5-5-4-4-5-5-7-7-|

G|---6---6---6---6---6---6-----------------------------------|
D|-----------------------------------------------------------|
A|-4---4---4---4---4---4---4-4--6--7--7--7-7-7---------------|
E|----------------------------------------------7--7--7-7-7--|

G|---6---6---6---6---6---6----------------------------------------------------------------|
D|----------------------------------------------------------------------------------------|
A|-4---4---4---4---4---4---4-4--6--7--7--7-7-7--------------------------------------------|
E|----------------------------------------------7--7--7-7-7--5--5--5-5-5--5-5-5x----------|

Chorus
G|-----------------------------------------------------------------|
D|-----------------------------------------------------------------|
A|-7-7-7-7-7-7-7-7-------------------------------------------------| x 2
E|-----------------7-7-7-7-7-7-7-7-9-9-9-9-9-9-9-9-5-5-5-5-5-5-5-5-|

G|-----------------------------------------------------|
D|-----------------------------------------------------|
A|-----------------------------------------------------| x 3
E|-0--0--0--0-5-7--7--7--7-7-9--9--9--9-9-5--5--5--5-5-|

G|---------------------------------------------------------------------------|
D|---------------------------------------------------------------------------|
A|----------------------------------------12-12-12x--------------------------|
E|-0--0--0--0-5-7--7--7--7-7-9--9-11--12-------------------------------------|

Interlude
G|---6---6---6---6---6---6---6---4-|
D|---------------------------------|
A|-4---4---4---4---4---4---4---2---| x 2
E|---------------------------------|

G|---6---6---6---6---6---8---9-----|
D|-------------------------------9-|
A|-4---4---4---4---4---6---7-------|
E|-----------------------------7---|

G|---6---6---6---6---6---6---6---4-|
D|---------------------------------|
A|-4---4---4---4---4---4---4---2---| 
E|---------------------------------|

Verse 

Chorus II
G|-------------------------------------------------------------------------|
D|-------------------------------------------------------------------------|
A|-7-7-7-7-7-7-7-7---------------------------------------------------------| 
E|-----------------7-7-7-7-7-7-7-7-9-9-9-9-9-9-9-9/17-17-17-17-17-17-17-17-|

G|-----------------------------------------------------------------|
D|-----------------------------------------------------------------|
A|-7-7-7-7-7-7-7-7-------------------------------------------------| 
E|-----------------7-7-7-7-7-7-7-7-9-9-9-9-9-9-9-9-5-5-5-5-5-5-5-5-|

G|-----------------------------------------------------|
D|-----------------------------------------------------|
A|-----------------------------------------------------| x 2
E|-0--0--0--0-5-7--7--7--7-7-9--9--9--9-9-5--5--5--5-5-|

-short break-

Guitar Solo
G|---6---6---6---6---6---6-----------------------------------|
D|-----------------------------------------------------------|
A|-4---4---4---4---4---4---4-4--6--7--7--7-7-7---------------|
E|----------------------------------------------7--7--7-7-7--|

G|---6---6---6---6---6---6----------------------------------------------------------------|
D|----------------------------------------------------------------------------------------|
A|-4---4---4---4---4---4---4-4--6--7--7--7-7-7--------------------------------------------|
E|----------------------------------------------7--7--7-7-7--5--5--5-5-5--5-5-5x----------|

Final Chorus
G|-------------------------------------------------------------------------|
D|-------------------------------------------------------------------------|
A|-7-7-7-7-7-7-7-7---------------------------------------------------------| 
E|-----------------7-7-7-7-7-7-7-7-9-9-9-9-9-9-9-9/17-17-17-17-17-17-17-17-|

G|-------------------------------------------------------------------------------------------------|
D|-------------------------------------------------------------------------------------------------|
A|-------------------------14-14-14-14-14-14-14-14-16-16-16-16-16-16-16-16-12-12-12-12-12-12-12-12-| x 3
E|-12-12-12-12-12-12-12-12-------------------------------------------------------------------------|

G|-----------------------------------------------------|
D|-----------------------------------------------------|
A|-----------------------------------------------------| x 2
E|-0--0--0--0-5-7--7--7--7-7-9--9--9--9-9-5--5--5--5-5-|

G|--------------------------------------------------------------|
D|--------------------------------------------------------------|
A|-----------------------9-9-7-7-6-6-4--4-6--7------------------|
E|-0-/12--12-12-12-12-7-------------------------5-5-5-5-5-5-5-5-|

G|--------------------------------------------------------------|
D|----------------------------------------------7-7-7x----------|
A|-----------------------9-9-7-7-6-6-4--4-6--7------------------|
E|-0-/12--12-12-12-12-7-----------------------------------------|

Outro
G|---6---6---6---6---6---6---6---4-|
D|---------------------------------|
A|-4---4---4---4---4---4---4---2---| x 3
E|---------------------------------|

G|---6---6---6---6---6---8---9-----|
D|-------------------------------9-|
A|-4---4---4---4---4---6---7-------|
E|-----------------------------7---|
                                             
G|---6---6---6---6---6---6---6---4-|
D|---------------------------------|
A|-4---4---4---4---4---4---4---2---|  
E|---------------------------------|

G|---6---6---6---6---6---8---9-----|
D|-------------------------------9-|
A|-4---4---4---4---4---6---7-------|
E|-----------------------------7---|

Happy playing!

| /  slide up
| \  slide down
| h  hammer-on
| p  pull-off
| ~  vibrato
| +  harmonic
| x  Mute note
===============================================================================
Добавлено: 15.06.2016
Другие материалы по этой песне:

Страница создана 18.07.2012
http://primanota.ru/kitade-nana/kesenai-tsumi-chords.htm
Привет, Гость.
Предлагаем пройти революционный курс по гитаре.
Подарок от PrimaNota.Ru, забирай!