PrimaNota.ru - самый крупный в мире бесплатный архив песенных текстов, аккордов, табулатур и нот


KIT-I - Polse Dozhdya - таба, видео

Регистрация Запомнить меня
Войти через:  Facebook Google Twitter Vk Yandex Mail.ru

KIT-I - Polse Dozhdya - таба, видео

Печатать
Просмотров: 97
Artist: KIT-I (КИТАЙ)
Song: Polse Dozhdya (После дождя)
Genere: Art-Rock, Emo
Tuning: Drop D (DADGBE)

Intro ( 0:00/0:40) Clean Guitar

Gtr 1

E |-2------2-----5------3----2----|-2------2----5------3-----2-----------|
B |----0-------------0-----------0|----0-----------0-------------0-------|
G |----------------------------------------------------------------------|
D | ---------------------------------------------------------------------|
A |----------------------------------------------------------------------|
D |----------------------------------------------------------------------|

E|-2-------2-----5-------3----2--------|
B|-----3-------------3-------------3---|
G|-------------------------------------|
D|-------------------------------------|
A|-------------------------------------|
D|-------------------------------------|                                                     Repeat...

E|-7-------7-----8-------7-------------|
B|-----5-------------5--------5--------|
G|-------------------------------------|
D|-------------------------------------|
A|-------------------------------------|
D|-------------------------------------|

Gtr 2 w/distortion (0:20/0:39)

E|----------------------------------------------.-------------------|
B|------------------------------------------------------------------|
G|------------------------------------------------------------------|
D|----------------------------------4 4 4 4 4 4 4 4 4 4 4 4 4 4 4 4-|
A|-2 2 2 2 2 2 2 2 2 2 2 2 2 2 2 2--2 2 2 2 2 2 2 2 2 2 2 2 2 2 2 2-|
D|-2 2 2 2 2 2 2 2 2 2 2 2 2 2 2 2----------------------------------|

E|------------------------------------------------------------------|
B|------------------------------------------------------------------|
G|------------------------------------------------------------------|
D|----------------------------------2 2 2 2 2 2 2 2 2 2 2 2 2 2 2 2-|
A|-0 0 0 0 0 0 0 0 0 0 0 0 0 0 0 0--0 0 0 0 0 0 0 0 0 0 0 0 0 0 0 0-|
D|-0 0 0 0 0 0 0 0 0 0 0 0 0 0 0 0----------------------------------|

Verse
Gtr 1 Clean (0:40/1:27)

E|-------------------------------------------------------------------------------------|
B|-------------------------------------------------------------------------------------|
G|-------------------------------------------------------------------------------------|
D|--9----------------|--9--------------------|---9------------------|--9---------------|
A|-------9------9----|---------9------9------|-----------9------9---|------9-----9-----|
D|-----7------7------|----7-------7----------|-----7--------7-------|----7------7------|

E|---------------------------------------------------------------------------------------|
B|---------------------------------------------------------------------------------------|
G|---------------------------------------------------------------------------------------|
D|--9------------------|---9-------------------|---9---------------|---9-----------------|
A|-------9---------9---|---------9---------9----|--------9------9---|--------9-----9-----|
D|----9---------9------|-----9----------9-------|-----9-------9-----|------9-----9-------|

E|-0--------0------------------------0-0-x-0--0--------0----------------0-0-x-0--|
B|-1--------1------------------------1-1-x-1--1--------1----------------1-1-x-1--|
G|-2--------2------------------------2-2-x-2--2--------2----------------2-2-x-2--|
D|-------------------------------------------------------------------------------|
A|-------------------------------------------------------------------------------|
D|-------------------------------------------------------------------------------|

Chorus (1:29/2:09)

Repeat Intro:
Gtr 1 Clean
E |-2------2-----5------3----2----|-2------2----5--------3-----2---------|
B |----0-------------0----------0-|----0------------0--------------0-----|
G |----------------------------------------------------------------------|
D | ---------------------------------------------------------------------|
A |----------------------------------------------------------------------|
D |----------------------------------------------------------------------|

E|-2-------2-----5---------3----2------|
B|-----3-------------3-------------3---|
G|-------------------------------------|
D|-------------------------------------|
A|-------------------------------------|
D|-------------------------------------|

E|-7-------7-----8---------7-----------|
B|-----5-------------5--------------5--|
G|-------------------------------------|
D|-------------------------------------|
A|-------------------------------------|
D|-------------------------------------|

Gtr 2 w/distortion
E|------------------------------------------------------------------|
B|------------------------------------------------------------------|
G|------------------------------------------------------------------|
D|----------------------------------4 4 4 4 4 4 4 4 4 4 4 4 4 4 4 4-|
A|-2 2 2 2 2 2 2 2 2 2 2 2 2 2 2 2--2 2 2 2 2 2 2 2 2 2 2 2 2 2 2 2-|
D|-2 2 2 2 2 2 2 2 2 2 2 2 2 2 2 2----------------------------------|

E|-------------------------------------------------------------------|
B|-------------------------------------------------------------------|
G|-------------------------------------------------------------------|
D|-----------------------------------2 2 2 2 2 2 2 2 2 2 2 2 2 2 2 2-|
A|-0 0 0 0 0 0 0 0 0 0 0 0 0 0 0 0---0 0 0 0 0 0 0 0 0 0 0 0 0 0 0 0-|
D|-0 0 0 0 0 0 0 0 0 0 0 0 0 0 0 0-----------------------------------|

Verse (2:09/2:37)

E|-------------------------------------------------------------------------------------|
B|-------------------------------------------------------------------------------------|
G|-------------------------------------------------------------------------------------|
D|--9----------------|--9--------------------|---9------------------|--9---------------|
A|-------9------9----|---------9------9------|-----------9------9---|------9-----9-----|
D|-----7------7------|----7-------7----------|-----7--------7-------|----7------7------|

E|---------------------------------------------------------------------------------------|
B|---------------------------------------------------------------------------------------|
G|---------------------------------------------------------------------------------------|
D|--9------------------|---9-------------------|---9---------------|---9-----------------|
A|-------9---------9---|---------9---------9----|--------9------9---|--------9-----9-----|
D|----9---------9------|-----9----------9-------|-----9-------9-----|------9-----9-------|

E|-0--------0------------------------0-0-x-0--0--------0----------------0-0-x-0--------|
B|-1--------1------------------------1-1-x-1--1--------1----------------1-1-x-1--------|
G|-2--------2------------------------2-2-x-2--2--------2----------------2-2-x-2--------|
D|-------------------------------------------------------------------------------------|
A|-------------------------------------------------------------------------------------|
D|-------------------------------------------------------------------------------------|

Chorus ( 2:38/3:18)

Repeat Intro Again:
Gtr 1 Clean
E |-2------2-----5------3----2----|-2------2----5------3-----2-------------|
B |----0-------------0----------0-|----0-----------0-------------0---------|
G |------------------------------------------------------------------------|
D | -----------------------------------------------------------------------|
A |------------------------------------------------------------------------|
D |------------------------------------------------------------------------|

E|-2-------2-----5-------3----2--------|
B|-----3-------------3-------------3---|
G|-------------------------------------|
D|-------------------------------------|
A|-------------------------------------|
D|-------------------------------------|

E|-7-------7-----8-------7-------------|
B|-----5-------------5-------------5---|
G|-------------------------------------|
D|-------------------------------------|
A|-------------------------------------|
D|-------------------------------------|

Gtr 2 w/distortion
E|------------------------------------------------------------------|
B|------------------------------------------------------------------|
G|------------------------------------------------------------------|
D|----------------------------------4 4 4 4 4 4 4 4 4 4 4 4 4 4 4 4-|
A|-2 2 2 2 2 2 2 2 2 2 2 2 2 2 2 2--2 2 2 2 2 2 2 2 2 2 2 2 2 2 2 2-|
D|-2 2 2 2 2 2 2 2 2 2 2 2 2 2 2 2----------------------------------|

E|-------------------------------------------------------------------|
B|-------------------------------------------------------------------|
G|-------------------------------------------------------------------|
D|-----------------------------------2 2 2 2 2 2 2 2 2 2 2 2 2 2 2 2-|
A|-0 0 0 0 0 0 0 0 0 0 0 0 0 0 0 0---0 0 0 0 0 0 0 0 0 0 0 0 0 0 0 0-|
D|-0 0 0 0 0 0 0 0 0 0 0 0 0 0 0 0-----------------------------------|

Solo Time! (3:28/4:04)

Gtr 1 Overdrive Distortion

E|-2--2--2--0--0--0--0--0--0--3--3--2--2--0-------0--0--0---------------------3--3--2--0------|
B|-------------------------------------------3--2-----------3--3--3--3--3--3-------------3--2-|

E|-0--0--0--2--2--2--2--2--2--3--3--2--2-0-----0--0--0----2---2---2---2---2---3---3---3--3-5-5-5--|
B|-----------------------------------------3--2---------0-----------------------------------------|
G|------------------------------------------------------------------------------------------------|
D|------------------------------------------------------------------------------------------------|
A|------------------------------------------------------------------------------------------------|
D|------------------------------------------------------------------------------------------------|

E|-7--7--7--7--7--7--7--7--7--15-15-15-15-14-12-10-12-12-12-10-10-10-10-10-10-15-15-15-15-14-12-10--|
B|-0--0--0--0--0--0--0--0--0------------------------------------------------------------------------|
G|--------------------------------------------------------------------------------------------------|
D|--------------------------------------------------------------------------------------------------|
A|--------------------------------------------------------------------------------------------------|
D|--------------------------------------------------------------------------------------------------|

E|-12-12-12-14-14-14-14-14-14-15-15-15-15-14-12-10-12-12-12-12-12-12-12-12-12-10-10--7--7--5--5--2--|
B|--------------------------------------------------------------------------------------------------|
G|--------------------------------------------------------------------------------------------------|
D|--------------------------------------------------------------------------------------------------|
A|--------------------------------------------------------------------------------------------------|
D|--------------------------------------------------------------------------------------------------|

Gtr 2 w/distortion

E|--------------------------------------------------------------------------------|
B|--------------------------------------------------------------------------------|
G|--------------------------------------------------------------------------------|
D|-----------------------------------4 4 4 4 4 4 4 4 4 4 4 4 4 4 4 4--------------|
A|-2 2 2 2 2 2 2 2 2 2 2 2 2 2 2 2---2 2 2 2 2 2 2 2 2 2 2 2 2 2 2 2--------------|
D|-2 2 2 2 2 2 2 2 2 2 2 2 2 2 2 2------------------------------------------------|

E|----------------------------------------------------------------------------------|
B|----------------------------------------------------------------------------------|
G|----------------------------------------------------------------------------------|
D|-----------------------------------2 2 2 2 2 2 2 2 2 2 2 2 2 2 2 2----------------|
A|-0 0 0 0 0 0 0 0 0 0 0 0 0 0 0 0---0 0 0 0 0 0 0 0 0 0 0 0 0 0 0 0----------------|
D|-0 0 0 0 0 0 0 0 0 0 0 0 0 0 0 0--------------------------------------------------|

E|---------------------------------------------------------------------------------|
B|---------------------------------------------------------------------------------|
G|---------------------------------------------------------------------------------|
D|------------------------------------4 4 4 4 4 4 4 4 4 4 4 4 4 4 4 4--------------|
A|-2 2 2 2 2 2 2 2 2 2 2 2 2 2 2 2----2 2 2 2 2 2 2 2 2 2 2 2 2 2 2 2--------------|
D|-2 2 2 2 2 2 2 2 2 2 2 2 2 2 2 2-------------------------------------------------|

E|-------------------------------------------------------------------------------------|
B|-------------------------------------------------------------------------------------|
G|-------------------------------------------------------------------------------------|
D|-----------------------------------2 2 2 2 2 2 2 2 2 2 2 2 2 2 2 2-------------------|
A|-0 0 0 0 0 0 0 0 0 0 0 0 0 0 0 0---0 0 0 0 0 0 0 0 0 0 0 0 0 0 0 0-------------------|
D|-0 0 0 0 0 0 0 0 0 0 0 0 0 0 0 0-----------------------------------------------------|

E|----------------------------------------------------------------------------------|
B|----------------------------------------------------------------------------------|
G|----------------------------------------------------------------------------------|
D|-------------------------------------4 4 4 4 4 4 4 4 4 4 4 4 4 4 4 4--------------|
A|-2 2 2 2 2 2 2 2 2 2 2 2 2 2 2 2-----2 2 2 2 2 2 2 2 2 2 2 2 2 2 2 2--------------|
D|-2 2 2 2 2 2 2 2 2 2 2 2 2 2 2 2--------------------------------------------------|

E|-------------------------------------------------------------------------------------|
B|-------------------------------------------------------------------------------------|
G|-------------------------------------------------------------------------------------|
D|-------------------------------------2 2 2 2 2 2 2 2 2 2 2 2 2 2 2 2-----------------|
A|-0 0 0 0 0 0 0 0 0 0 0 0 0 0 0 0-----0 0 0 0 0 0 0 0 0 0 0 0 0 0 0 0--------2--------|
D|-0 0 0 0 0 0 0 0 0 0 0 0 0 0 0 0--------------------------------------------2--------|
Добавлено: 20.12.2015
Вам также может быть интересно:
Другие материалы по этой песне:
  • Аккорды и текст

Страница создана 20.12.2015
http://primanota.ru/kit-i/polse-dozhdya-chords.htm
Привет, Гость.
Предлагаем пройти революционный курс по гитаре.
Подарок от PrimaNota.Ru, забирай!