PrimaNota.ru - самый крупный в мире бесплатный архив песенных текстов, аккордов, табулатур и нот


Kisschasy - Ugly Birds In A Beautiful Cage - текст песни, таба, бас-таба, видео

Регистрация Запомнить меня
Войти через:  Facebook Google Twitter Vk Yandex Mail.ru

Kisschasy - Ugly Birds In A Beautiful Cage - текст песни, таба, бас-таба, видео

Печатать
Просмотров: 124
Title: Ugly Birds In A Beautiful Cage
Artist: Kisschasy
Album: Hymns For The Non-Believer

Tabbed by Hazel (lezahtherock). Email: latetoo00@hotmail.com

Tuning: Half Step Down.


CLEAN
INTRO/VERSE:

   GUITAR 1
    +   1 + 2 + 3 + 4 + 
eb|---|------------------|
Bb|---|o-8--8-6------6--o|
Gb|-8-|---8--8----8-8-8--| x12
Db|---|------------------| 
Ab|---|o----------------o|
Eb|---|------------------|
  |   |                  |
  |GUITAR 2              |
  | + | 1 + 2 + 3 + 4 +  |
eb|---|------------------|
Bb|---|o--------6---6---o|
Gb|---|-----------8---8--|
Db|---|------------------| x12
Ab|---|o----------------o|
Eb|---|------------------|

CHORUS: (...feel so safe, hiding my face)

   BOTH GUITARS
     1 + 2 + 3 + 4 +    1 + 2 + 3 + 4 + 
eb|------------------|------------------|
Bb|o-8---8---8---8---|-6---6---6---6---o|
Gb|----8---8---8---8-|---8---8---8---8--| x4
Db|------------------|------------------|
Ab|o-----------------|-----------------o|
Eb|------------------|------------------|

............and I will stay the same

    1 + 2 + 3 + 4 +   1 + 2 + 3 + 4 + 
eb|-----------------|-----------------|
Bb|-8---8---8---8---|-8---------------|
Gb|---8---8---8---8-|---------8-----8-| -> this 8: guitar 1
Db|-----------------|---------------8-| -> this 8: guitar 2
Ab|-----------------|-----------------| they lead on to
Eb|-----------------|-----------------|     the verse

VERSE:

   GUITAR 1
     1 + 2 + 3 + 4 + 
eb|------------------|
Bb|o-8--8--6------6-o|
Gb|---8--8----8-8-8--| x12
Db|------------------| 
Ab|o----------------o|
Eb|------------------|
  |                  |
  |GUITAR 2          |
  |  1 + 2 + 3 + 4 + |
eb|------------------|
Bb|o----------------o|
Gb|------------------| x12
Db|------8-5---------|
Ab|o-6-----------8--o|
Eb|------------------|
  |                  |
  |GUITAR 3          |
  |  1 + 2 + 3 + 4 + |
eb|------------------|
Bb|o--------6---6---o|
Gb|-----------8---8--|
Db|------------------| x12
Ab|o----------------o|
Eb|------------------|

CHORUS: (...feel so safe, hiding my face)

   BOTH GUITARS
     1 + 2 + 3 + 4 +    1 + 2 + 3 + 4 + 
eb|------------------|------------------|
Bb|o-8---8---8---8---|-6---6---6---6---o|
Gb|----8---8---8---8-|---8---8---8---8--| x4
Db|------------------|------------------|
Ab|o-----------------|-----------------o|
Eb|------------------|------------------|

............and I will stay the same

    1 + 2 + 3 + 4 +   1 + 2 + 3 + 4 + 
eb|-----------------|-----------------|
Bb|-8---8---8---8---|-6---------------|
Gb|---8---8---8---8-|---------8-------| 
Db|-----------------|-----------------| 
Ab|-----------------|-----------------| 
Eb|-----------------|-----------------| 


DISTORTION
BREAKDOWN:

   BOTH GUITARS
     1 + 2 + 3 + 4 +   
eb|-------------------|
Bb|o-----------------o|
Gb|--8-8-8-5-5-5-5-5--| x3
Db|--8-8-8-5-5-5-5-5--|
Ab|o-6-6-6-3-3-3-3-3-o|
Eb|-------------------|
PM   . . . . . . . . 

    1 + 2 + 3 + 4 +   
eb|-----------------|
Bb|-----------------|
Gb|-8-8-8-5-5-5-x-x-| 
Db|-8-8-8-5-5-5-x-x-|
Ab|-6-6-6-3-3-3-x-x-|
Eb|-----------------|

     1 + 2 + 3 + 4 +   
eb|-------------------|
Bb|o-----------------o|
Gb|--8-8-8-5-5/7\5-5--| x12
Db|--8-8-8-5-5/7\5-5--|
Ab|o-6-6-6-3-3/5\3-3-o|
Eb|-------------------|

CHORUS:

   GUITAR 1
     1 + 2 + 3 + 4 +   1 + 2 + 3 + 4 + 
eb|------------------|------------------|
Bb|o-----------------|-----------------o|
Gb|------------------|---------3-3-3-3--| x4
Db|--6-6-6-6-6-6-6-6-|-5-5-5-5-3-3-3-3--|
Ab|o-6-6-6-6-6-6-6-6-|-5-5-5-5-1-1-1-1-o|
Eb|--4-4-4-4-4-4-4-4-|-3-3-3-3----------|


    1 + 2 + 3 + 4 +    1 + 2 + 3 + 4 + 
eb|-----------------|-----------------|
Bb|-----------------|-----------------|
Gb|-----------------|-----------------| x4
Db|-6-6-6-6-6-6-6-6-|-5-5-5-5-3-3-3-3-|
Ab|-6-6-6-6-6-6-6-6-|-5-5-5-5-3-3-3-3-|
Eb|-4-4-4-4-4-4-4-4-|-3-3-3-3-1-1-1-1-|


    GUITAR 2
     1 + 2 + 3 + 4 +   1 + 2 + 3 + 4 + 
eb|------------------|------------------|
Bb|o-8---8---8---8---|-6---6---6---6---o|
Gb|----8---8---8---8-|---8---8---8---8--| x5
Db|------------------|------------------|
Ab|o-----------------|-----------------o|
Eb|------------------|------------------|


OUTTRO:

   GUITAR 1
     1 + 2 + 3 + 4 +   
eb|-------------------|
Bb|o-----------------o|
Gb|--8-8-8-5-5/7\5-5--| x8
Db|--8-8-8-5-5/7\5-5--|
Ab|o-6-6-6-3-3/5\3-3-o|
Eb|-------------------|

   GUITAR 2
     1 + 2 + 3 + 4 +   
eb|-------------------|
Bb|o-----------------o|
Gb|--7p5-7p5-7p5-7p5--| x8
Db|-------------------|
Ab|o-----------------o|
Eb|-------------------|

END ON:

   GUITAR 1
eb|----|
Bb|----|
Gb|-8~-|
Db|-8~-|
Ab|-6~-|
Eb|----|

   GUITAR 2
eb|----|
Bb|----|
Gb|-7~-|
Db|----|
Ab|----|
Eb|----|


/   slide up
\   slide down
h   hammer-on
p   pull-off
~   vibrato/let ring
+   harmonic
x   Mute note
b   bend
r   release
.   palm mute
Добавлено: 06.05.2012
Другие материалы по этой песне:
  • Аккорды и текст

Страница создана 06.05.2012
http://primanota.ru/kisschasy/ugly-birds-in-a-beautiful-cage-chords.htm
Привет, Гость.
Предлагаем пройти революционный курс по гитаре.
Подарок от PrimaNota.Ru, забирай!