PrimaNota.ru - самый крупный в мире бесплатный архив песенных текстов, аккордов, табулатур и нот


Kisschasy - Resolution Wednesday - текст песни, таба, видео

Регистрация Запомнить меня
Войти через:  Facebook Google Twitter Vk Yandex Mail.ru

Kisschasy - Resolution Wednesday - текст песни, таба, видео

Печатать
Просмотров: 161
Уроки эстрадного вокала в Санкт-Петербурге
Title: Resolution Wednesday
Artist: Kisschasy
Album: Do-Do's and Woah-oh's Single/
Too B or not Too B compilation

Tabbed by Hazel (lezahtherock). Email: latetoo00@hotmail.com

Tuning: Standard 

Intro/Verse 1: 
Guitar 1 - palm muted until he goes "Wednesday, Wednesday!"
e|-------|
B|-------|
G|-------|
D|-6-7-2-|
A|-6-7-2-|
E|-4-5-0-|

Guitar 2 
Right before "the little hand on the big clock".
Play the guitar 1 riff at "Wednesday, Wednesday!"
e|----12~--|
B|-12------|
G|---------|
D|---------|
A|---------|
E|---------|

Chorus
Guitar 1 for the whole chorus: (listen for pattern)
e|---------|
B|---------|
G|-6-4-----|
D|-6-4-7-2-|
A|-4-2-7-2-|
E|-4-2-5-0-|

Guitar 2
And I'll set my alarm to 3002/I will freeze my body
e|----------|
B|----------|
G|-6--------|
D|-x--------|
A|-4--------|
E|----------|

waiting years for this (listen for timing)
e|-----------0-|
B|-------9-7-0-|
G|-6-8-9-9-9-9-|
D|-x-x-x-------|
A|-4-6-7-------|
E|-------------|

Verse 2
Guitar 1 - palm muted until he goes "Wednesday, Wednesday!"
e|-------|
B|-------|
G|-------|
D|-6-7-2-|
A|-6-7-2-|
E|-4-5-0-|

Guitar 2 - palm mute, gradually opens up. 
Play the guitar 1 riff at "Wednesday, Wednesday!"
e|-12-------12-------12-------12---12----|
B|----12-12----12-12----12-12----12---12-|
G|---------------------------------------|
D|---------------------------------------|
A|---------------------------------------|
E|---------------------------------------|

Chorus
Guitar 1 for the whole chorus: (listen for timing)
e|---------|
B|---------|
G|-6-4-----|
D|-6-4-7-2-|
A|-4-2-7-2-|
E|-4-2-5-0-|

Guitar 2
And I'll set my alarm to 3002/I will freeze my body
e|----------|
B|----------|
G|-6--------|
D|-x--------|
A|-4--------|
E|----------|

waiting years for this (listen for timing)
e|-----------0-|
B|-------9-7-0-|
G|-6-8-9-9-9-9-|
D|-x-x-x-------|
A|-4-6-7-------|
E|-------------|

Bridge "ooooooh"
Guitar 1
e|-----|
B|-----|
G|-----|
D|-7-2-|
A|-7-2-|
E|-5-0-|

Guitar 2 solo
e|-------------7-------------|
B|-------9\7-7---------------|
G|-4/9~----------8/9~-9\6\4~-|
D|---------------------------|
A|---------------------------|
E|---------------------------|

Chorus
Guitar 1 for the whole chorus: (listen for timing)
e|---------|
B|---------|
G|-6-4-----|
D|-6-4-7-2-|
A|-4-2-7-2-|
E|-4-2-5-0-|

Guitar 2
And I'll set my alarm to 3002/I will freeze my body
e|----------|
B|----------|
G|-6--------|
D|-x--------|
A|-4--------|
E|----------|

waiting years for this (listen for timing)
e|-----------0-|
B|-------9-7-0-|
G|-6-8-9-9-9-9-|
D|-x-x-x-------|
A|-4-6-7-------|
E|-------------|

Outro: Strum once, listen for timing
"'Cause I've been waiting years for this, 
and I'll be waiting here for you."
e|-4~-2~-5~-0~-|
B|-5~-2~-5~-0~-|
G|-6~-4~-6~-1~-|
D|-6~-4~-7~-2~-|
A|-4~-2~-7~-2~-|
E|-4~-2~-5~-0~-|

/   slide up
\   slide down
h   hammer-on
p   pull-off
~   vibrato/let ring
+   harmonic
x   Mute note
b   bend
r   release
.   palm mute
Добавлено: 22.07.2012
Другие материалы по этой песне:
  • Аккорды и текст

Страница создана 22.07.2012
http://primanota.ru/kisschasy/resolution-wednesday-chords.htm
Привет, Гость.
Предлагаем пройти революционный курс по гитаре.
Подарок от PrimaNota.Ru, забирай!