PrimaNota.ru - самый крупный в мире бесплатный архив песенных текстов, аккордов, табулатур и нот


Kisschasy - Reminder - текст песни, таба, видео

Регистрация Запомнить меня
Войти через:  Facebook Google Twitter Vk Yandex Mail.ru

Kisschasy - Reminder - текст песни, таба, видео

Печатать
Просмотров: 124
Уроки эстрадного вокала в Санкт-Петербурге
-------------------------------------------------------------------------------
                             Reminder (Acoustic) - Kisschasy
-------------------------------------------------------------------------------
Tabbed by: Stas Belkov
Email: stasbelkov@hotmail.com

My First Tab !
Im pretty sure this is 100% right.

Tuning: Normal

Opening Chords

e|-----0-----0------------------------------------------------------------------|
B|-----2-----3------------------------------------------------------------------|
G|-----2-----2------------------------------------------------------------------|
D|-----0-----0------------------------------------------------------------------|
A|-----0-----x------------------------------------------------------------------|
E|-----------3------------------------------------------------------------------|

Verse (listen to the song for strumming pattern)  [repeat for all verses]

"The alphabet from a to z ... " "... like a cigarette burn"
e|-----0-----0-------------------------0-----0-------------------------------|
B|-----2-----3-------------------------3-----3-------------------------------|
G|-----2-----2-------------------------2-----0-------------------------------|
D|-----0-----0-------------------------x-----0-------------------------------|
A|-----0-----x-------------------------2-----x-------------------------------|
E|-----------3-------------------------------3-------------------------------|

Chorus (guitar 1)  "I've fallen, on my feet ... "
e|---0-----3-----0-----0--------------------------------------------------------|
B|---0-----3-----3-----3--------------------------------------------------------|
G|---1-----4-----2-----2--------------------------------------------------------|
D|---0-----5-----0-----2--------------------------------------------------------|
A|---2-----5-----0-----0--------------------------------------------------------|
E|---0-----3--------------------------------------------------------------------|

Chorus (guitar 2)
e|----10-9-----10-9-----10-9-----10-9------10-9--10----repeat--|
B|---------10-------10-------10-------10-------10--------------|
G|-------------------------------------------------------------|
D|-------------------------------------------------------------|
A|-------------------------------------------------------------|
E|-------------------------------------------------------------|

Outro (guitar 1) "When will we forget ..."
e|---0----0----0----0----0------------------------------------------------------------|
B|---2----3----2----3----3------------------------------------------------------------|
G|---2----2----2----2----0------Repeat------------------------------------------------|
D|---0----0----0----x----0------------------------------------------------------------|
A|---0----x----0----2----x------------------------------------------------------------|
E|--------3--------------3------------------------------------------------------------|

Outro (guitar 2)
e|----10-9-----10-9-----10-9-----10-9------10-9--10----repeat--|
B|---------10-------10-------10-------10-------10--------------|
G|-------------------------------------------------------------|
D|-------------------------------------------------------------|
A|-------------------------------------------------------------|
E|-------------------------------------------------------------|

Outro (Guitar 3)
e|---2(x16)-3(x16)-5(x16)-3(x8)-2(x8)----2(x16)-3(x16)-10(x32)---------------------|
B|---------------------------------------------------------------------------------|
G|---------------------------------------------------------------------------------|
D|---------------------------------------------------------------------------------|
A|---------------------------------------------------------------------------------|
E|---------------------------------------------------------------------------------|

End
e|----Guitar 1:----0--------Guitar 2:--10--------------------------------------|
B|-----------------3-----------------------------------------------------------|
G|-----------------2-----------------------------------------------------------|
D|-----------------0-----------------------------------------------------------|
A|-----------------------------------------------------------------------------|
E|-----------------------------------------------------------------------------|

                     Listen to the song to understand rythm. Enjoy !
| /  slide up
|   slide down
| h  hammer-on
| p  pull-off
| ~  vibrato
| +  harmonic
| x  Mute note
===============================================================================
Добавлено: 21.04.2012
Другие материалы по этой песне:
  • Аккорды и текст

Страница создана 03.04.2012
http://primanota.ru/kisschasy/reminder-chords.htm
Привет, Гость.
Предлагаем пройти революционный курс по гитаре.
Подарок от PrimaNota.Ru, забирай!