PrimaNota.ru - самый крупный в мире бесплатный архив песенных текстов, аккордов, табулатур и нот


Kisschasy - Hearing Voices Tonight - текст песни, бас-таба, видео

Регистрация Запомнить меня
Войти через:  Facebook Google Twitter Vk Yandex Mail.ru

Kisschasy - Hearing Voices Tonight - текст песни, бас-таба, видео

Печатать
Просмотров: 129
Уроки эстрадного вокала в Санкт-Петербурге
Band - Kisschasy
Song - Hearing Voices Tonight
Album - United Paper People
Tabbed By - Jayson

G-----------------------|
D-----------------------|
A-3-3-3-----3-3-3-------| x7
E------1-1-1-----1-1-1--|

G---------------|
D---------------|
A-3~-5~--7~-8~--| x2
E---------------|

G--------------------------------------|
D--------------------------------------|
A--------------------------------------| x2
E-0-0-0-1-1-1-1-1-1-3-3-3-5-5-5-5-5-5--|

G---------------------------------|
D---------------------------------|
A----------------/8-8-8-8-8-8-8-8-|
E-1-1-1-1-1-1-1-1-----------------|

G-----------------------|
D-----------------------|
A-3-3-3-----3-3-3-------| x7
E------1-1-1-----1-1-1--|

G---------------|
D---------------|
A-3~-5~--7~-8~--| x2
E---------------|

G--------------------------------------|
D--------------------------------------|
A--------------------------------------| x2
E-0-0-0-1-1-1-1-1-1-3-3-3-5-5-5-5-5-5--|

G------------------------------------|
D------------------------------------|
A----------------/8-8-8-8-8-8-8-8-3~-|
E-1-1-1-1-1-1-1-1--------------------|

(wooo ohhh ooo wooo ohhh)
G-----------|
D-----------|
A-3~--3~----| x2
E---1~--1~--|

G-------------------------------|
D-------------------------------|
A-3-3-------3-3-------3-3-------|
E------1-1-------1-1--------1-1-|

G-----|-------------|
D-----|-------------|
A-3-3-|------3-3/7--| x4
E-----|1-1/12-------|

G---------|
D---------|
A---------|
E-11111111

G-------------------------------------|
D-------------------------------------|
A-------------------------------------|
E-0-0-0-1-1-1-1-1-1-3-3-3-5-5-5-5-5-5-|

G----------------------------------|
D----------------------------------|
A----------------------------------|
E-0-0-0-1-1-1-1-1-1-3-3-3-5-5-5----|

G--------------------------------------|
D--------------------------------------|
A--------------------------------------| x2
E-0-0-0-1-1-1-1-1-1-3-3-3-5-5-5-5-5-5--|

G---------------------------------|
D---------------------------------|
A----------------/8-8-8-8-8-8-8-8-|
E-1-1-1-1-1-1-1-1-----------------|

G-----------------------|
D-----------------------|
A-3-3-3-----3-3-3-------| x2
E------1-1-1-----1-1-1--|

G-----
D-----
A-3-5~
E-----
Добавлено: 22.07.2012
Другие материалы по этой песне:
  • Аккорды и текст

Страница создана 22.07.2012
http://primanota.ru/kisschasy/hearing-voices-tonight-chords.htm
Привет, Гость.
Предлагаем пройти революционный курс по гитаре.
Подарок от PrimaNota.Ru, забирай!