PrimaNota.ru - самый крупный в мире бесплатный архив песенных текстов, аккордов, табулатур и нот


Kisschasy - Anger Is The Brand Knew Thing - таба, видео

Регистрация Запомнить меня
Войти через:  Facebook Google Twitter Vk Yandex Mail.ru

Kisschasy - Anger Is The Brand Knew Thing - таба, видео

Печатать
Просмотров: 98
Kisschasy
Anger Is the Brand New Thing

INTRO- (DRUMS 4 2 BARS)
|-----------------------------------------------------------------|------|
|-----------------------------------------------------------------|------|
|-----------------------------------------------------------------|--7~--|
|--5-5-5-5-5-5-5-2-2-2-2-2-2-9-9-9-9-9-9-9-9-9-9-9-9-444---22-----|--X---|
|--5-5-5-5-5-5-5-2-2-2-2-2-2-9-9-9-9-9-9-9-9-9-9-9-9-444---22-----|--5~--|
|--3-3-3-3-3-3-3-0-0-0-0-0-0-7-7-7-7-7-7-7-7-7-7-7-7-222---00-x2--|------|

VERSE- (fast strumming up & down)
---------------|---------------------------------------|---------|
--BASS PLAYS---|---------------------------------------|---------|
---------------|---------------------------------------|--7-9-11-|
---------------|---------------------------------------|--X-X-X--|
---------------|--5-5-5-5-5-5-5-5----------------------|--5-7-9--|
---------------|------------------5-5-5-5-5-5-5-5--x3--|---------|
PM                . . . . . . . . . . . . . . . .

CHORUS - 
|------------------------------------------------------------------|
|------------------------------------------------------------------|
|------------------4-4-4-4-4-4-4-4-----------------4-4-4-4-4-4-4-4-|
|--5-5-5-5-5-5-5-5-4-4-4-4-4-4-4-4-5-5-5-5-5-5-5-5-4-4-4-4-4-4-4-4-|
|--5-5-5-5-5-5-5-5-2-2-2-2-2-2-2-2-5-5-5-5-5-5-5-5-2-2-2-2-2-2-2-2-|
|--3-3-3-3-3-3-3-3-----------------3-3-3-3-3-3-3-3-----------------| x2

INTRO AGAIN
|-----------------------------------------------------------------|------|
|-----------------------------------------------------------------|------|
|-----------------------------------------------------------------|--7~--|
|--5-5-5-5-5-5-5-2-2-2-2-2-2-9-9-9-9-9-9-9-9-9-9-9-9-444---22-----|--X---|
|--5-5-5-5-5-5-5-2-2-2-2-2-2-9-9-9-9-9-9-9-9-9-9-9-9-444---22-----|--5~--|
|--3-3-3-3-3-3-3-0-0-0-0-0-0-7-7-7-7-7-7-7-7-7-7-7-7-222---00-----|------|

VERSE-
|------------------|---------------------------------------------------|
|--BASS------------|---------------------------------------------------|
|-PLAYS-7/9/11-14--|--7-7-7--------------------------------------------|
|-------X-X-X--X---|--7-7-7----12-12-12p11-------7-7-7-----------------|
|-------5/7/9--12--|--5-5-5----------------12----7-7-7---10-10-10p9h12-|
|------------------|-----------------------------5-5-5-----------------|
PM                              .  .                      .  .

VERSE CONTINUED
|----------------------------------------------------|
|----------------------------------------------------|
|--------------------------------7-9-11--------------|
|-------5-5-5-12-12-12p11--------X-X-X---------------|
|-------5-5-5-------------12-----5-7-9---------------|
|-------3-3-3----------------------------------------|
PM             .  .

CHORUS - 
|------------------------------------------------------------------|
|------------------------------------------------------------------|
|------------------4-4-4-4-4-4-4-4-----------------4-4-4-4-4-4-4-4-|
|--5-5-5-5-5-5-5-5-4-4-4-4-4-4-4-4-5-5-5-5-5-5-5-5-4-4-4-4-4-4-4-4-|
|--5-5-5-5-5-5-5-5-2-2-2-2-2-2-2-2-5-5-5-5-5-5-5-5-2-2-2-2-2-2-2-2-|
|--3-3-3-3-3-3-3-3-----------------3-3-3-3-3-3-3-3-----------------| x2



BRIDGE
|-------------|-------------------------------------------------------------|
|-------------|-------------------------------------------------------------|
|-------------|--------------------------------4-4-4-4-4-4-4x--2-2-2-2-2-2-2|
|-------------|--2-2-2-2-2-2-2x--5-5-5-5-5-5-5-4-4-4-4-4-4-4x--2-2-2-2-2-2-2|
|-555555555-55|--2-2-2-2-2-2-2x--5-5-5-5-5-5-5-2-2-2-2-2-2-2x--0-0-0-0-0-0-0|
|-333333333-33|--0-0-0-0-0-0-0x--3-3-3-3-3-3-3------------------------------|
pm..........

BRIDGE CONTINUED.
|--------------------------------------------------------------|
|--------------------------------------------------------------|
|--------------------------------4-4-4-4-4-4-4x--2-2-2-2-2-2-2-|
|--5-5-5-5-5-5-5x-2-2-2-2-2-2-2--4-4-4-4-4-4-4x--2-2-2-2-2-2-2-|
|--5-5-5-5-5-5-5x-2-2-2-2-2-2-2--2-2-2-2-2-2-2x--0-0-0-0-0-0-0-|
|--3-3-3-3-3-3-3x-0-0-0-0-0-0-0--------------------------------|

CHORUS 2
|----5-----5-----5---5-----5-----5-------|--------------|
|------3-----3---------3-----3-----------|--------------|
|--0-----0-----0---4-----4-----4------x3-|--------------|
|----------------------------------------|--5-5-5-5-5---|
|----------------------------------------|--5-5-5-5-5---|
|----------------------------------------|--3-3-3-3-3---|
PM              GRADUALLY RELEASING PM      . . .

CHORUS/ OUTRO                                                           END-
|------------------------------------------------------------------|-----|
|------------------------------------------------------------------|-----|
|------------------4-4-4-4-4-4-4-4-----------------4-4-4-4-4-4-4-4-|-----|
|--5-5-5-5-5-5-5-5-4-4-4-4-4-4-4-4-5-5-5-5-5-5-5-5-4-4-4-4-4-4-4-4-|--5--|
|--5-5-5-5-5-5-5-5-2-2-2-2-2-2-2-2-5-5-5-5-5-5-5-5-2-2-2-2-2-2-2-2-|--5--|
|--3-3-3-3-3-3-3-3-----------------3-3-3-3-3-3-3-3-----------------|--3--| 

OUTRO FADES OUT
|----5-----5-----5---5-----5-----5--------|
|------3-----3---------3-----3------------|
|--0-----0-----0---4-----4-----4-------x3-|
|-----------------------------------------|
|-----------------------------------------|
|-----------------------------------------|

Добавлено: 06.06.2012
Другие материалы по этой песне:
  • Аккорды и текст

Страница создана 06.06.2012
http://primanota.ru/kisschasy/anger-is-the-brand-knew-thing-chords.htm
Привет, Гость.
Предлагаем пройти революционный курс по гитаре.
Подарок от PrimaNota.Ru, забирай!