PrimaNota.ru - самый крупный в мире бесплатный архив песенных текстов, аккордов, табулатур и нот


Kiss - Strange Ways - текст песни, таба, бас-таба, видео

Регистрация Запомнить меня
Войти через:  Facebook Google Twitter Vk Yandex Mail.ru

Kiss - Strange Ways - текст песни, таба, бас-таба, видео

Печатать
Просмотров: 214
Eb|------------------------------------------------------------------|
Bb|--18b---18--18--18-18-18--18~---\---------------------------------|
Gb|--------------------------------------------5b-----r5p0-----------|
Db|----------------------------------------/5------------------------|
Ab|------------------------------------------------------------------|
Eb|------------------------------------------------------------------|
    Hold bend - - - - - - - - >

Eb|------------------------------------------------------------------|
Bb|------------------------------------------------------------------|
Gb|--5---3------3--5--3--5b-----5**--5**--5**--5**--5**--5**---------|
Db|--5---3--/5-------------------------------------------------------|
Ab|------------------------------------------------------------------|
Eb|------------------------------------------------------------------|
              Bend while picking---------------------------->
Eb|------------------------------------------------------------------|
Bb|------------------------------------/8-8--11b-8-11----------------|
Gb|--5--5p3p0-5p3p0--5b--r5--3~--------------------------------------|
Db|------------------------------------------------------------------|
Ab|------------------------------------------------------------------|
Eb|------------------------------------------------------------------|
         < - 3x - >

Eb|--10b-r10-9-8-6--3h6p3----3-----------6---------------------------|
Bb|------------------------6---6-3-----------------------------------|
Gb|--------------------------------3--5b---r5**-3--------------------|
Db|------------------------------------------------------------------|
Ab|------------------------------------------------------------------|
Eb|------------------------------------------------------------------|

Eb|---------15h18p15------15-18b-----15h18p15-15h18p15---------------|
Bb|-/15-18-----------18------------------------------------15--------|
Gb|-----------------------------------------------------17-----------|
Db|------------------------------------------------------------------|
Ab|------------------------------------------------------------------|
Eb|------------------------------------------------------------------|

Eb|-18b------18b~-----18b---18b--------------------------------------|
Bb|------------------------------------------------------------------|
Gb|---------------------------------------3b-r3\---------------------|
Db|------------------------------------------------------------------|
Ab|------------------------------------------------------------------|
Eb|----------------------------------/3------------------------------|

Eb|------------------------------------------------------------------|
Bb|--3h-5--5--5--3--5b^-r5p3---3--5b^-r5p3---------------------------|
Gb|--3h-5--5--5--3--5b^-r5p3---3--5b^-r5p3---3--5-3h5p3---3-3\-------|
Db|--------------------------5-------------5------------5------------|
Ab|------------------------------------------------------------------|
Eb|------------------------------------------------------------------|

Eb|-------------------------------------------------3-6-3h6p3---3----|
Bb|---------------------------------------------3-6-----------6------|
Gb|-------------------3-----------------3h5p3h5----------------------|
Db|--------3h5--3h4h5---------3h5-3h4h5------------------------------|
Ab|--3h4h5-----------------3h5---------------------------------------|
Eb|------------------------------------------------------------------|

Eb|-------------------------------------15-------15------------------|
Bb|--6b-r6-------------------------15------18p15------15-------------|
Gb|--------3~----------------------17b----------------17b------------|
Db|------------------------------------------------------------------|
Ab|------------------------------------------------------------------|
Eb|------------------------------------------------------------------|
                                   < - - 4x - - - >
Добавлено: 09.05.2012
Другие материалы по этой песне:

Страница создана 18.03.2012
http://primanota.ru/kiss/strange-ways-chords.htm
Привет, Гость.
Предлагаем пройти революционный курс по гитаре.
Подарок от PrimaNota.Ru, забирай!