PrimaNota.ru - самый крупный в мире бесплатный архив песенных текстов, аккордов, табулатур и нот


Kiss - Rock And Roll Hell - текст песни, таба, видео

Регистрация Запомнить меня
Войти через:  Facebook Google Twitter Vk Yandex Mail.ru

Kiss - Rock And Roll Hell - текст песни, таба, видео

Печатать
Просмотров: 147
Уроки эстрадного вокала в Санкт-Петербурге
Key:
/    = slide up
\    = slide down
b    = bend (whole step)
b^   = bend (1/2 step)
b^^  = bend (1 1/2 steps)
pb   = pre-bend
r    = release-bend
t    = tap with righthand finger
h    = hammer-on
p    = pull-off
~    = Vibrato
*    = Natural Harmonic
#(#) = Trill
**   = Artificial Harmonic
x    = Dead notes (no pitch)
P.M. = Palm mute (- -> underneath indicates which notes)
(\)  = Dive w\bar
(/)  = Release w\bar
Tp   = Tap w\plectrum



Rhythm Fig. 1a
                                                       
E|--------------------------------------------------------|
B|---------------3------------------------3---------------|
G|---------------0----2-------------------2----2----------|
D|---------------0----2-------------------0----2----------|
A|---------------x----0------------------------0----------|
E|--0-0-1-2-3~---3-----------0-0-1-2-3~-------------------|



Rhythm Fig. 1b
                                              
E|--------------------------------------------------------|
B|---------------3----------------------------------------|
G|---------------0----2------9----------------------------|
D|---------------0----2------9----------------------------|
A|---------------x----0------7----------------------------|
E|--0-0-1-2-3~---3-----------0----------------------------|


    
                                                
Rhythm Fig. 2a
                                              
E|--------------------------------------------------------|
B|----------12~---14~-------------15~---14~---------------|
G|----------12~---14~-------------14~---14~---------------|
D|----------12~---14~-------------16~---14~---------------|
A|--------------------------------------------------------|
E|--------------------------------------------------------|




Rhythm Fig. 2b
                                           
E|--------------------------------------------------------|
B|----------12~---14~-------------------------------------|
G|----------12~---14~-----9-------------------------------|
D|----------12~---14~-----9-------------------------------|
A|------------------------7-------------------------------|
E|------------------------0-------------------------------|


     
                                         
Rhythm Fig. 3
                                        
E|--3-----------------------------------------------------|
B|--3------------------3----------------------------------|
G|--0------------------2----------------------------------|
D|--x------------------0----------------------------------|
A|--3-----------------------------------------------------|
E|--------------------------------------------------------|
   < - - - - - - 2x - - - - - - >




Rhythm Fig. 4
                                                
E|----------------------12---15---------------------------|
B|----------15------15-------15---------------------------|
G|--------------14-----------0----------------------------|
D|--------------------------------------------------------|
A|--------------------------------------------------------|
E|--------------------------------------------------------|
           Let ring - - >



Rhythm Fig. 5
                                         
E|--------------------------------------------------------|
B|---------------3----------------------------------------|
G|---------------0-----2----------------------------------|
D|---------------0-----2----------------------------------|
A|--7------------x-----0----------------------------------|
E|--0------------3----------------------------------------|



End 1
                                             
E|--------------------------------------------------------|
B|--3-----------------------------------------------------|
G|--0-----------------2-----------------------------------|
D|--0-----------------2----------2-0----------------------|
A|--x-----------------0--------------2-0------------------|
E|--3------------------------------------3----------------|



End 2
                                           
E|--------------------------------------------------------|
B|--3-----------------------------------------------------|
G|--0------------------2----------------------------------|
D|--0------------------2----------------------------------|
A|--x-----------(2)----0----------------------------------|
E|--3-------------------------------10\-------------------|



End 3
                                           
E|--------------------------------------------------------|
B|--3-----------------------------------------------------|
G|--0------------------2----------------------------------|
D|--0------------------2----------------------------------|
A|--x-----------(2)----0----------------------------------|
E|--3-----------------------------------------------------|





Rhythm Fig. 6 (P.M. throughout)
                                                  
E|--------------------------------------------------------|
B|--------------------------------------------------------|
G|--------------------------------------------------------|
D|--------------------------------------------------------|
A|--------------------------------------------------------|
E|--0--0-0-0--0-0-0--0-0-0--0-0---------------------------|







Rhythm Fig. 7a
                                                            
E|--------------------------------------------------------|
B|--------------------------------------------------(3)---|
G|---------------------------------------------------0----|
D|---------------------------------------------------0----|
A|---------------------------------------------------2----|
E|--0--0-0-0--0-0-0--0-0-0--0-0-0--0-0-0--0-0-0--0-0-3----|
    P.M. - - - - - - - - - - - - - - - - - - - - - >



E|--------------------------------------------------------|
B|---------------------------------------------3----------|
G|--2------------------------------------------2----------|
D|--2------------------------------------------0----------|
A|--0------------------------------------------0----------|
E|--------------------------------------------------------|


                                           
E|--------------------------------------------------------|
B|---------------------------------------------3----------|
G|---------------------------------------------0----------|
D|--2------------------------------------------0----------|
A|--2-----------------------------------------(2)---------|
E|--0------------------------------------------3----------|


                                          
E|--------------------------------------------------------|
B|--------------------------------------------------------|
G|--2-----------------------------------------------------|
D|--2-----------------------------------------------------|
A|--0-----------------------------------------------------|
E|--------------------------------------------------------|



Rhythm Fig. 7b
                                                            
E|--------------------------------------------------------|
B|--------------------------------------------------(3)---|
G|---------------------------------------------------0----|
D|---------------------------------------------------0----|
A|--7--7-7-7--7-7-7--7-7-7--7-7-7--7-7-7--7-7-7--7-7-2----|
E|--0--0-0-0--0-0-0--0-0-0--0-0-0--0-0-0--0-0-0--0-0-3----|
    P.M. - - - - - - - - - - - - - - - - - - - - - >



E|--------------------------------------------------------|
B|---------------------------------------------------3----|
G|---------------------------------------------------2----|
D|--7--7-7-7--7-7-7--7-7-7--7-7-7--7-7-7--7-7-7--7-7-0----|
A|--0--0-0-0--0-0-0--0-0-0--0-0-0--0-0-0--0-0-0--0-0-0----|
E|--------------------------------------------------------|
    P.M. - - - - - - - - - - - - - - - - - - - - - >


                                           
E|--------------------------------------------------------|
B|--------------------------------------------------(3)---|
G|---------------------------------------------------0----|
D|---------------------------------------------------0----|
A|--7--7-7-7--7-7-7--7-7-7--7-7-7--7-7-7--7-7-7--7-7-2----|
E|--0--0-0-0--0-0-0--0-0-0--0-0-0--0-0-0--0-0-0--0-0-3----|
    P.M. - - - - - - - - - - - - - - - - - - - - - >


                                          
E|--------------------------------------------------------|
B|--------------------------------------------------------|
G|--------------------------------------------------------|
D|--7--7-7-7--7-7-7--7-7-7--7-7-7--7-7-7--7-7-7--7-7-7----|
A|--0--0-0-0--0-0-0--0-0-0--0-0-0--0-0-0--0-0-0--0-0-0----|
E|--------------------------------------------------------|
    P.M. - - - - - - - - - - - - - - - - - - - - - >



Rhythm Fig. 8
                                             
E|--------------------------------------------------------|
B|----------------------------------------0----0----------|
G|----------------------------------------2b---2br2p0-----|
D|-----------------------------------------------------2--|
A|--7-----------------------------------------------------|
E|--0-----------------------------------------------------|


                                          
E|--------------------------------------------------------|
B|--------------------------------------------------------|
G|--------------------------------------------------------|
D|--------------------------------------------------------|
A|---------------------------------x\---------------------|
E|--0------------------------------x\---------------------|
                                  Pick scrape


Riff 1

E|--------------------------------------------------------|
B|--------------------------------------------------------|
G|--------------------------------------------------------|
D|--------------------------------------------------------|
A|--------------------------------------------------------|
E|--/19\--------------------------------------------------|



Riff 2
                                           
E|--------------------------------------------------------|
B|--------------------------------------------------------|
G|--------------------------------------------------------|
D|--2p0-2~------------------------------------------------|
A|--------------------------------------------------------|
E|--------------------------------------------------------|



Riff 3
                                           
E|--22b---r22-22b~----------------------------------------|
B|--------------------------------------------------------|
G|--------------------------------------------------------|
D|--------------------------------------------------------|
A|--------------------------------------------------------|
E|--------------------------------------------------------|



Solo

E|--------------------------------------------15---15-15--|
B|--15----------------------------------------15b---------|
G|--14b---r14p12----14-12-----------------x---------------|
D|---------------14-------14-12~----x-x---x---------------|
A|----------------------------------x-x-------------------|
E|--------------------------------------------------------|
                                              Let ring - >


E|--15-------19b^^---19--18--17---------------------------|
B|--15b-------------------------20--17--------------------|
G|-------------------------------------19-16--------------|
D|------------------------------------------19-17----17---|
A|------------------------------------------------19------|
E|--------------------------------------------------------|



E|-----------------------------15----------------12-------|
B|-------------------------------------15--------------15-|
G|-----16---------------14b--------14-----14b-------14----|
D|--19----17----------------------------------------------|
A|-----------19~------------------------------------------|
E|--------------------------------------------------------|



E|--------15-------15b^^----15b---15~--12-----------------|
B|-----12-------12------------------------15--12----------|
G|--14-------14----------------------------------14b-r14--|
D|--------------------------------------------------------|
A|--------------------------------------------------------|
E|--------------------------------------------------------|



E|--------------------------------------------------------|
B|--------------------------------------------------------|
G|--12----------------------------------------------------|
D|-----14-------------------------------------------------|
A|--------------------------------------------------------|
E|--------------------------------------------------------|





Outro solo

E|---------12---------------------------------------------|
B|------12----15-12---------------------------------------|
G|--14b-------------14-12-----14b^--12----14b^--12--------|
D|------------------------14-----------14----------14-----|
A|--------------------------------------------------------|
E|--------------------------------------------------------|



E|--------------------------------------------------------|
B|--------12----12-15-15b~--------------------------------|
G|--12-14----14-------------------------------------------|
D|--------------------------------------------------------|
A|--------------------------------------------------------|
E|--------------------------------------------------------|



E|--------------------------------------------------------|
B|--------------------------------------------------------|
G|------12----12----14----12----------12------------------|
D|--/14----14----14----14----14-12-14----14-14b^^-----r14-|
A|--------------------------------------------------------|
E|--------------------------------------------------------|
       Light P.M. - - - - ->


E|--------------------------------------------------------|
B|--------------------------------------------------------|
G|---------------------x-7b~-----r7p-4\2p0h2p0---2p0-2/4--|
D|---------------------x-----------------------2----------|
A|--------------------------------------------------------|
E|--------------------------------------------------------|



E|----3-5/7------------------------------15---------------|
B|--3-------8--5-8-5---5~----------/15b----15b~-----------|
G|-------------------7------------------------------------|
D|--------------------------------------------------------|
A|--------------------------------------------------------|
E|--------------------------------------------------------|



E|------------------15b~----15b~----------17--------------|
B|--15p12-x---15p12-----------------17b------r17-15-------|
G|--------------------------------------------------16-14-|
D|--------------------------------------------------------|
A|--------------------------------------------------------|
E|--------------------------------------------------------|
                                                  Fade out







ROCK AND ROLL HELL
Gene Simmons, Bryan Adams, Jim Wallance

[Riff 1]
[Rhy. Fig 1a w/ Rhy. Fig 2a]
[Rhy. Fig 1b w/ Rhy. Fig 2b]

[Bass and drums only]
Been under fire sixteen years, just waitin' for his time to come
He fought the lies, fought back the tears
Can't wait to hear that starting gun

[Rhy. Fig 3 w/ Rhy. Fig 4]
There ain't nobody gonna step on his dreams
So he held his hands high and screamed

[Rhy. Fig 5 w/ End 1]
Get me out of this rock and roll hell, take me far away
Get me out of this rock and roll hell
[Rhy. Fig 5 w/ End 2]
Get me out of this rock and roll hell, I need to get away
Get me out of this rock and roll hell
[Rhy. Fig 6] (2x)

[Rhy. Fig 7a w/ Rhy. Fig 7b]
He's on the edge, he can feel it in his heart
This time the pressure's really on
He's gonna fight it, might even steal a guitar
This time tomorrow he'll be gone

[Rhy. Fig 3 w/ Rhy. Fig 4]
There ain't nobody gonna tell him what to do
Think he's a little like me and you, yeah

[Rhy. Fig 5 w/ End 1]
Get me out of this rock and roll hell, take me far away
Get me out of this rock and roll hell
[Rhy. Fig 5 w/ End 3]
Get me out of this rock and roll hell, I need to get away
Get me out of this rock and roll hell
[Riff 1]

[Solo over Rhy. Fig 1a w/ Rhy. Fig 2a (3x)]
[Rhy. Fig 1b w/ Rhy. Fig 2b]
[Rhy. Fig 8]

[Rhy. Fig 7a w/ Rhy. Fig 7b and Riff 2]
He's on the run, won't stand for second place, but his turn may never come
He's not a victim, you can see it in his face
But he can't see what he's become

[Rhy. Fig 3 w/ Rhy. Fig 4]
Well, he wants it bad, but he wants no charity
[Riff 3]
He seems to think it's his destiny

[Rhy. Fig 5 w/ End 1 and Outro solo] (repeat and fade)
Get me out of this rock and roll hell, I need to get away
Get me out of this rock and roll hell
Get me out of this rock and roll hell, take me far away
Get me out of this rock and roll hell

Добавлено: 06.06.2012
Другие материалы по этой песне:

Страница создана 01.04.2012
http://primanota.ru/kiss/rock-and-roll-hell-chords.htm
Привет, Гость.
Предлагаем пройти революционный курс по гитаре.
Подарок от PrimaNota.Ru, забирай!