PrimaNota.ru - самый крупный в мире бесплатный архив песенных текстов, аккордов, табулатур и нот


Kiss - Never Enough - текст песни, таба, видео

Регистрация Запомнить меня
Войти через:  Facebook Google Twitter Vk Yandex Mail.ru

Kiss - Never Enough - текст песни, таба, видео

Печатать
Просмотров: 117
KISS - NEVER ENOUGH

Paul Stanley rythm guitar



|     tab by D BБNFALVI     |
|  wwww.youtube.com/rnrgod  |



INTRO:
      G  G  G  D  G  G  G  D  G  G  D     A

d#||--3--3--3--2--3--3--3--2--3--3--2-----------|
A#||--3--3--3--3--3--3--3--3--3--3--3-----------|
F#||--0--0--0--2--0--0--0--2--0--0--2-----2~----|
C#||--0--0--0-----0--0--0-----0--0--------2~----|
G#||--2--2--2-----2--2--2-----2--2--------0~----|
D#||--3--3--3-----3--3--3-----3--3-----3--------|


      E     A  A  G  G  D     A

   |--------------3--3--2----------|
   |--------------3--3--3----------|
   |--------2--2--0--0--2-----2----|
   |--2-----2--2--0--0--------2----|
   |--2-----0--0--2--2--------0----|
   |--0--3--------3--3-----3-------|



MAIN RAFF:
d#||---------------------------------------------------|
A#||---------------------------------------------------|
F#||--2~----14--15--14--15----------12----------12--14-|
C#||--2~----14--14--14--14----------12--12--12--12--14-|
F#||--0~----14--16--14--16--12--14------12--12---------|
D#||---------------------------------------------------|


                                                        A

  ||-------------------------------------------------------|
  ||--14--------15--14--15---------------------------------|
  ||--14--------14--14--14----------12--12--------------2--|
  ||--14--------16--14--16----------12--12--12----------2--|
  ||------------------------12--14----------12----------0--|
  ||--------------------------------------------3--3-------|



PRE CHORUS:
      C  F  F  C                   D  G   G  D  D  D  D

d#||----------------------------------------------------|
A#||----------------------------------------------------|
F#||-----5--3--------------------------7--7-------------|
C#||--5--3--5--5--------------------7--5--5--7--7--7--7-|
G#||--3--------3--------3--5--3--0--5--------5--5--5--5-|
D#||--------------3--5----------------------------------|



CHORUS:
      E     A  G  G     A

d#||-----------3--3----------|
A#||-----------3--3----------|
F#||--------2--0--2-----2----|
C#||--2-----2--0--0-----2----|
G#||--2-----0--2--0-----0----|
D#||--0--3-----3--2--3-------|



PRE SOLO (base)
      E              G    D              E              G    D

d#||--0--------------3----2--------------0--------------3----2----|
A#||--0--------------0----3--------------0--------------0----3----|
F#||--1--------------0----2--------------1--------------0----2----|
C#||--2--------------0----0--------------2--------------0----0----|
G#||--2--------------2-------------------2--------------2---------|
D#||--0----0----2----3---------3----2----0----0----2----3---------|



SOLO BASE
    B    C#   D    E

d#----------------------|| (2x)
A#----------------------||
F#--4----6----7----9----||
C#--4----6----7----9----||
G#--2----4----5----7----||
D#-----------------0----||
Добавлено: 25.09.2013
Другие материалы по этой песне:

Страница создана 26.06.2012
http://primanota.ru/kiss/never-enough-chords.htm
Привет, Гость.
Предлагаем пройти революционный курс по гитаре.
Подарок от PrimaNota.Ru, забирай!