PrimaNota.ru - самый крупный в мире бесплатный архив песенных текстов, аккордов, табулатур и нот


Kiss - Master & Slave - текст песни, таба, бас-таба, драм-таба, видео

Регистрация Запомнить меня
Войти через:  Facebook Google Twitter Vk Yandex Mail.ru

Kiss - Master & Slave - текст песни, таба, бас-таба, драм-таба, видео

Печатать
Просмотров: 234
Key:
/    = slide up
\    = slide down
b    = bend (whole step)
b^   = bend (1/2 step)
b^^  = bend (1 1/2 steps)
pb   = pre-bend
r    = release-bend
t^   = tap with righthand finger
h    = hammer-on
p    = pull-off
~    = Vibrato
*    = Natural Harmonic
#(#) = Trill
**   = Artificial Harmonic
x    = Dead notes (no pitch)
P.M. = Palm mute (- -> underneath indicates which notes)
(\)  = Dive w\bar
(/)  = Release w\bar
Tp   = Tap w\plectrum

Rhythm Fig. 1

Eb|----------------------------------------------------------------------|
Bb|----------------------------------------------------------------------|
Gb|----------------------------------------------------------------------|
Db|----------------------------------------------------------------------|
Ab|--------------------------------5-----3--2--0-------------------------|
Db|--0--0--7--6~---0--5--3~--0--3-----3------------3--0--7--6~--0--5--3~-|

Eb|----------------------------------------------------------------------|
Bb|----------------------------------------------------------------------|
Gb|----------------------------------------------------------------------|
Db|----------------------------------------------------------------------|
Ab|----------3-----5-----3-----------------------------------------------|
Db|----0--3-----3-----3--------------------------------------------------|


Rhythm Fig. 2

Eb|----------------------------------------------------------------------|
Bb|-------------------------------------------------------------------6--|
Gb|-------------------------------------------------------------------5--|
Db|----------------------------------------------------------------------|
Ab|-------------------------------5-----3--2--0--------------------------|
Db|-0--0--7--6~--0--5--3~---0--3-----3-----------3--0--7--6---0--5--3----|
						   Vol.
						   swell


Rhythm Fig. 3

Eb|----------------------------------------------------------------------|
Bb|----------------------------------------------------------------------|
Gb|----------------------------------------------------------------------|
Db|----------------------------------------------------------------------|
Ab|----------------------------------------------------------------------|
Db|----------------6~-----5----3-----------------------------------------|

Rhythm Fig. 4 (heavy palm mute throughout)

Eb|----------------------------------------------------------------------|
Bb|----------------------------------------------------------------------|
Gb|----------------------------------------------------------------------|
Db|----------------------------------------------------------------------|
Ab|--0--0--7--6----0--5--3------3--3--3--3--3--3--3----------------------|
Db|--0--0--7--6----0--5--3------3--3--3--3--3--3--3----------------------|

Rhythm Fig. 5

Eb|----------------------------------------------------------------------|
Bb|----------------------------------------------------------------------|
Gb|----------------------------------------------------------------------|
Db|--0------1----2----3----5---------------------------------------------|
Ab|--0------1----2----3----5---------------------------------------------|
Db|--0------1----2----3----5---------------------------------------------|

Rhythm Fig. 6

Eb|----------------------------------------------------------------------|
Bb|----------------------------------------------------------------------|
Gb|----------------------------------------------------------------------|
Db|--0-------------------------------------------------------------------|
Ab|--0-------------------------------------------------------------------|
Db|--0-------------------------------------------------------------------|


Rhythm Fig. 7

Eb|----------------------------------------------------------------------|
Bb|----------------------------------------------------------------------|
Gb|---------------5--5--5--5--4--4---------------------------------------|
Db|--0------------5--5--5--5--4--4---------------------------------------|
Ab|--0-------------------------------------------------------------------|
Db|--0-------------------------------------------------------------------|

Rhythm Fig. 8

Eb|----------------------------------------------------------------------|
Bb|----------------------------------------------------------------------|
Gb|----5--5--5--5--4--2--------------------------------------------------|
Db|----5--5--5--5--4--2--------------------------------------------------|
Ab|----------------------------------------------------------------------|
Db|----------------------6~---5~---3-------------------------------------|


Rhythm Fig. 9

Eb|----------------------------------------------------------------------|
Bb|----------------------------------------------------------------------|
Gb|----------------------------------------------------------------------|
Db|----------------------------------------------------------------------|
Ab|------------------------------5----3-2-0------------------------------|
Db|--0--0--7-6~--0--5--3---0--3-----3--------3--0--7--6---0--5--6~--5--3-|


Rhythm Fig. 10

Eb|----------------------------------------------------------------------|
Bb|----------------------------------------------------------------------|
Gb|----------------------------------------------------------------------|
Db|--0--0----------------------------------------------------------------|
Ab|--0--0----------------------------------------------------------------|
Db|--0--0----------------------------------------------------------------|


Solo

Eb|----------------------------------------------------------------------|
Bb|------12/13-13-13-13\12-----x-13~-------------------------------------|
Gb|------10/11-11-11-11\10--------------------------12**~----------------|
Db|----------------------------------------------------------------------|
Ab|----------------------------------------------------------------------|
Db|----------------------------------------------------------------------|
		 	Whammy bar vib.     Wide whammy bar vib.

Eb|----------------------------------------------------------------------|
Bb|-----------------------------------------12(\)----12(\)---------------|
Gb|------------------x----------------------12(\)----12(\)--------11(/)--|
Db|--12--------------x--------------------------------------------10(/)--|
Ab|------------------x-10------------10\---------------------------------|
Db|----------------------------------10\---------------------------------|
      Dip whammy bar 4x


Eb|-----------------------------0h13~-------12h-13p-12-------------------|
Bb|--------------------------------------------------------------13~-----|
Gb|----12p10**-12p10-12--10\----------------------------12b~-------------|
Db|-12-------------------------------------------------------------------|
Ab|----------------------------------------------------------------------|
Db|----------------------------------------------------------------------|
Very wide vib.


Eb|-------------------13~-----12h-13p-12---------------------------------|
Bb|-----------------------------------------------13~-----12--12b^12r-10-|
Gb|-10/-12\-10----------------------------12b~---------------------------|
Db|-------------10b~-----------------------------------------------------|
Ab|-8/--10\-8------------------------------------------------------------|
Db|----------------------------------------------------------------------|

Riff 1

Eb|--13------------------12------------------10--------------------------|
Bb|--16b~----------------15b~----------------13b~------------------------|
Gb|----------------------------------------------------------------------|
Db|----------------------------------------------------------------------|
Ab|----------------------------------------------------------------------|
Db|----------------------------------------------------------------------|
  |                                                                      |
  |                                                                      |
  |                                                                      |
Eb|--13------------------12----------------------------------------------|
Bb|--16b~----------------15b~----------------10--------------------------|
Gb|------------------------------------------12b~------------------------|
Db|----------------------------------------------------------------------|
Ab|----------------------------------------------------------------------|
Db|----------------------------------------------------------------------|


Riff 2

Eb|----------------------------------------------------------------------|
Bb|--13------------------12------------------6---------------------------|
Gb|--15b~----------------14b~----------------8b~-------------------------|
Db|----------------------------------------------------------------------|
Ab|----------------------------------------------------------------------|
Db|----------------------------------------------------------------------|
  |                                                                      |
  |                                                                      |
  |                                                                      |
Eb|----------------------------------------------------------------------|
Bb|--13------------------8-----------------------------------------------|
Gb|--15b~----------------10b~----------------7~--------------------------|
Db|----------------------------------------------------------------------|
Ab|----------------------------------------------------------------------|
Db|----------------------------------------------------------------------|


Riff 3

Eb|--17------------------15------------------13--------------------------|
Bb|--20b~----------------18b~----------------16b~------------------------|
Gb|-----------------------------------------(12b~)-----------------------|
Db|----------------------------------------------------------------------|
Ab|----------------------------------------------------------------------|
Db|----------------------------------------------------------------------|
  |                                                                      |
  |                                                                      |
  |                                                                      |
Eb|--17------------------15----------------------------------------------|
Bb|--20b~----------------18b~----------------10--------------------------|
Gb|------------------------------------------12b~------------------------|
Db|----------------------------------------------------------------------|
Ab|----------------------------------------------------------------------|
Db|----------------------------------------------------------------------|


Riff 4

Eb|----------------------------------------------------------------------|
Bb|--13------------------12------------------6-------8b---8~--6----------|
Gb|--15b~----------------14b~----------------8b~-------------------------|
Db|----------------------------------------------------------------------|
Ab|----------------------------------------------------------------------|
Db|----------------------------------------------------------------------|
  |                                                                      |
  |                                                                      |
  |                                                                      |
Eb|----------------------------------------------------------------------|
Bb|--13------------------------------------------------------------------|
Gb|--15b~----------------10b~----------------7~--------------------------|
Db|----------------------------------------------------------------------|
Ab|----------------------------------------------------------------------|
Db|----------------------------------------------------------------------|


MASTER & SLAVE
Simmons, Thayer, Kulick


[Intro Rhy. Fig 1]
[Rhy. Fig 2]

[Bass only]
Life, a movie in my head
A page of lines we read
The words remain unsaid

[Rhy. Fig 3]

[Bass only]
Time, a race you never win
Look back at where we've been
And throw the towel in

[Rhy. Fig 3]
[Rhy. Fig 1]
Every time I see a sign
Tell me what's the bottom line
Tell Me
I just wanna take my turn
Now before I crash and burn

[Rhy. Fig 2 without last bar]
Yeah

[Bass only]
Hope, a candle burning bright
A temporary light
'Till we return tonight

[Rhy. Fig 3]
[Rhy. Fig 4]
Love, the mighty drug we crave
The master and the slave
Will rule us to our grave

[Rhy. Fig 3]
[Rhy. Fig 1]
Everytime I see a sign
Tell me what's the bottom line
Tell Me
I just want a place to rest,
Count to four and catch my breath
One, Two, Three, Four...

[Rhy. Fig 5 clean]
I don't know what to feel
Don't know what to say
Don't know what to do

[Rhy. Fig 6]
[Rhy. Fig 5]
I don't know where to go
Don't know who to be
Don't know who to know

[Rhy. Fig 7]
[Solo over Rhy. fig 5]
[Rhy. Fig 8]

[Bass only]
Life is never what it seems
It shakes you from your dreams
Wake up and start to

[Rhy. Fig 1]
Everytime I see a sign
Tell me what's the bottom line
Tell Me

[Rhy. Fig 9]
I just want a place to rest
Stop and let me catch my breath

[Rhy. Fig 1]
Everytime I see a sign
Tell me what's the bottom line
Tell Me

[Rhy. Fig 9]
Forget all that I've been told
I just wanna lose control

[Rhy. Fig 1]
Everytime I see a sign
Tell me what's the bottom line
Tell Me

[Rhy. Fig 9]
I just wanna take my turn
Now before I crash and burn

[Rhy. Fig 1 with Riff 1]
[Rhy. Fig 9 with Riff 2]
[Rhy. Fig 1 with Riff 1]
[Rhy. Fig 9 with Riff 4]
[Rhy. Fig 10]
Добавлено: 11.06.2012
Другие материалы по этой песне:

Страница создана 14.03.2012
http://primanota.ru/kiss/master-and-slave-chords.htm
Привет, Гость.
Предлагаем пройти революционный курс по гитаре.
Подарок от PrimaNota.Ru, забирай!