PrimaNota.ru - самый крупный в мире бесплатный архив песенных текстов, аккордов, табулатур и нот


Kiss - Loveem And Leaveem - текст песни, таба, видео

Регистрация Запомнить меня
Войти через:  Facebook Google Twitter Vk Yandex Mail.ru

Kiss - Loveem And Leaveem - текст песни, таба, видео

Печатать
Просмотров: 108
Авторы музыки: Gene Simmons
Авторы текста: Gene Simmons
Love 'Em And Leave 'Em by KISS
From the album Rock And Roll Over
Transcriber: Unknown
--------------------------------------------------------------------



  intro & chorus      repeat                           verses
e:-------------------------------------------3-3-----------------------------|
B:-------------------------------------------3-3-----------------------------|
G:---9--7----7--9-----9--7----7--9------2----0-0-----------------------------|
D:---7--5----4--7-----7--5----4--7------2----0-0---2----4---6---7------6---7-|
A:--------------------------------------0----x-x---2----2---4---5------4---5-|
E:-------------------------------------------3-3---0--0---0---0------0---0---|


                                                          


e:---------------------------------------------10-9------|
B:-------------------------------------------------10----|
G:-------------------------------------9-9-9---------9---|
D:--9-------4---6---7------6---7---9---7-7-7----------7--|
A:--7-------2---4---5------4---5---7---0-0-0-------------|
E:0-------0---0---0------0---0---0-----------------------|


                                                     

   "I've got a.."                       to chorus
e:----------------------------------3-3-3-----------|
B:----------------------------------3-3-3----3-3-3--|
G:--2-2-2-----2-2-2-------4-4-4-----0-0-0----2-2-2--|
D:--2-2-2-----2-2-2-------4-4-4-----0-0-0----0-0-0--|
A:--0-0-0-----0-0-0-------2-2-2-----x-x-x-----------|
E:----------------------------------3-3-3-----------|




   fill   in chorus 1             fill in chorus 2
e:------------------------------|---------------------|
B:-----10/8---10/8---10b-10-8---|---------------------|
G:---------9------9----------9~-|-x7b-x7b-x7b-x7b-5---|
D:------------------------------|-------------------7~|
A:------------------------------|---------------------|
E:------------------------------|---------------------|




    solo
e:-------------------------------------------9b-9b-9b-9b-9b------------------|
B:---8/10/8--7/8/7--10b-10-8--7b-7b-7b-7b-7b----------------7b/7----7--------|
G:---------------------------------------------------------------7/9---7/9-9b|
D:---------------------------------------------------------------------------|
A:---------------------------------------------------------------------------|
E:---------------------------------------------------------------------------|





e:---------------------------------------------------------------------------|
B:---------------------------------------------2b/2--------3--3~---5--5~-----|
G:-9/7/9/7/9/7/9/7/0---0/2/0/2/0/2/0/2/0/2/0/2-2b/2-0-2-0--5b-5b~--7b-7b~--9/|
D:----------------------------------------------------2-0--------------------|
A:---------------------------------------------------------------------------|
E:---------------------------------------------------------------------------|





e:---------------------------------------------------------------17---------17
B:-----------------------------------------------------------17----20/17-17--|
G:7/0/9/7/0/9/7/0/9/7/0---14/12/0/14/12/0/14/12/0/14/12/0----19b---------19b-|
D:---------------------------------------------------------------------------|
A:---------------------------------------------------------------------------|
E:---------------------------------------------------------------------------|


                                                                         


e:7-----------17---------------------------------------------------------|
B:-20/17--17----20/17-------------------------12-----10----8----7----5---|
G:--------19b----------19/17---19-17------------------------------------2|
D:--------------------------19-------19-----9------7-----5----4----2----2|
A:----------------------------------------------------------------------0|
E:-----------------------------------------------------------------------|
Добавлено: 04.10.2013
Другие материалы по этой песне:

Страница создана 25.02.2012
http://primanota.ru/kiss/loveem-and-leaveem-chords.htm
Привет, Гость.
Предлагаем пройти революционный курс по гитаре.
Подарок от PrimaNota.Ru, забирай!