PrimaNota.ru - самый крупный в мире бесплатный архив песенных текстов, аккордов, табулатур и нот


Kiss - Little Caeser - бас-таба, видео

Регистрация Запомнить меня
Войти через:  Facebook Google Twitter Vk Yandex Mail.ru

Kiss - Little Caeser - бас-таба, видео

Печатать
Просмотров: 141
Key:
/    = slide up
\    = slide down
b    = bend (whole step)
b^   = bend (1/2 step)
b^^  = bend (1 1/2 steps)
pb   = pre-bend
r    = release-bend
t    = tap with righthand finger
h    = hammer-on
p    = pull-off
~    = Vibrato
*    = Natural Harmonic
#(#) = Trill
**   = Artificial Harmonic
x    = Dead notes (no pitch)
P.M. = Palm mute (- -> underneath indicates which notes)
(\)  = Dive w\bar
(/)  = Release w\bar
Tp   = Tap w\plectrum





Rhythm Fig. 1
                                                        
G|----------------------------------------------------|
D|----------------------------------------------------|
A|-------7----5h7-7-7-----5h7----7----5h7-7-7-7~------|
E|--0-------------------------0-----------------------|


                                                       
G|----------------------------------------------------|
D|----------------------------------------------------|
A|--5h7----7----5h7-----7----5h7--------5h7-7---------|
E|------0-----------0-0----------0-------------0--3/--|



Rhythm Fig. 2a
                                        
G|----------------------------------------------------|
D|----------------------------------------------------|
A|----------------------------------------------------|
E|--0-----------------------------------------3/------|




Rhythm Fig. 2b
                                         
G|----------------------------------------------------|
D|----------------------------------------------------|
A|----------------------------------------------------|
E|--0------------------------------------3----5/------|




Rhythm Fig. 3
                                                   
G|----------------------------------------------------|
D|----------------------------------------------------|
A|-----------------------------------7-5---5----------|
E|--0-------x-0-0--0--0-5p0-0----------------5/-------|




Rhythm Fig. 4
                                                      
G|----------------------------------------------------|
D|----------------------------------------------------|
A|----------------------------------------------------|
E|--0-------x-0-0--0--0-5p0-0-------x-0-0--0--0-3p0---|


                                                     
G|----------------------------------------------------|
D|----------------------------------------------------|
A|----------------------------------------------------|
E|--0-------x-0-0--0--0-5p0-0-------0-2/3--x-3/4------|


                                                        
G|----------------------------------------------------|
D|----------------------------------------------------|
A|----------------------------------------------------|
E|--5------0--3h5-3h5--0-3-0-5------0--3h5-3h5--0-3-0-|


                                                      
G|----------------------------------------------------|
D|----------------------------------------------------|
A|--------------------5h7-----------------------------|
E|--0-------x-0-0--0------0-0------x-x-3h4--x-5~-5----|


   
                                                  
G|----------------------------------------------------| 
D|----------------------------------------------------| 
A|----------------------------------------------------| 
E|--7--------5/7-7-7--0-5-0---------------------------| 



End 1
                                                      
G|---------------------4-5-6~-------------------------| 
D|------------------------------7-5-------------------| 
A|----------------------------------7-5-0-------------| 
E|--5-------5-5-5--5-------------------------12\------| 



End 2
                                                        
G|----------------------4-5-6~------------------------| 
D|--------------------7----------7-5------------------| 
A|----------x-4-5--7-----------------7-5-0------------| 
E|--5-----------------------------------------12\-----| 



Rhythm Fig. 5

G|----------------------------------------------------|
D|----------------------------------------------------|
A|--5p4-5-4-7-----5-4--5------------------------------|
E|-------------5---------0----------------------------|



Rhythm Fig. 6
                                           
G|----------------------------------------------------|
D|----------------------------------------------------|
A|----------------------------------------------------|
E|--0--------------------------0-0--0-0---------------|


                                               
G|----------------------------------------------------|
D|----------------------------------------------------|
A|----------------------------------------------------|
E|--0--------0-0--0-0-----7--------7-7---7------------|


                                               
G|----------------------------------------------------|
D|----------------------------------------------------|
A|--5--------5-5---5/---------------------------------|
E|-----------------------0--------0-0--0-0------------|


                                               
G|----------------------------------------------------|
D|----------------------------------------------------|
A|----------------------------------------------------|
E|--0--------0-0--0-0-----7--------7-7---7------------|


                                              
G|----------------------------------------------------|
D|----------------------------------------------------|
A|--5--------5-5---5/---------------------------------|
E|-----------------------0--------0-0---0-------------|


                                         
G|----------------------------------------------------|
D|----------------------------------------------------|
A|----------------------------------------------------|
E|--0--------3----5/----------------------------------|



Rhythm Fig. 7a
                                               
G|----------------------------------------------------|
D|----------------------------------------------------|
A|--3---2---3---3-3-3-3p2-----------------------------|
E|------------------------3---------------------------|



Rhythm Fig. 7b
                                             
G|----------------------------------------------------|
D|----------------------------------------------------|
A|--5-------5-----------------------------------------|
E|------5-------3--0-0--------------------------------|








LITTLE CAESAR
Eric Carr, Gene Simmons, Adam Mitchell

[Rhy. Fig 1]

[Rhy. Fig 2a]
[Rhy. Fig 3]

[Rhy. Fig 4]
Ten million stories in the city, ten million backs against the wall 
Desperation's out tonight, you can cut it with a knife 
Everybody wants to have it all 
Well they tell you that the world is rough 
But they never rocked it hard enough 

[Rhy. Fig 5] (4x)
Hey little Caesar, nobody messing with you 
Hey little Caesar, go show 'em what you can do 

[Rhy. Fig 2b]

[Rhy. Fig 4]
Nobody said that it was pretty, you haven't got a penny or a prayer 
You know it's gonna be a fight, if you wanna see your name in lights 
Ain't nobody gives a damn out there 
Well you got your guts, you got your pride 
But you'll never let them see inside 

[Rhy. Fig 5] (4x)
Hey little Caesar, nobody messing with you 
Hey little Caesar, go show 'em what you can do 


[Rhy. Fig 6] 
You¥ll show them what you can do
Well you don't believe in the books and rules 
'Cause you just believe in what you know is cool 
Well they tell you that the world is rough 
But they never rocked it hard enough - I can't hear you 

[Rhy. Fig 4]
They just don't understand, you gotta fight to be a man 

[Rhy. Fig 5]  (4x)
Hey little Caesar, nobody messing with you 
Hey little Caesar, go show 'em what you can do 

[Rhy. Fig 5] (3x)
Hey little Caesar, oh yeah, that's what it is 
Hey little Caesar, yeah
[Rhy. Fig 7a]
Oooh 

[Rhy. Fig 5] (3x)
Ooh, oh, woah
Hey little Caesar, alright
You gotta show ¥em, yeah
[Rhy. Fig 7b]

Добавлено: 23.03.2012
Другие материалы по этой песне:
  • Аккорды и текст

Страница создана 23.03.2012
http://primanota.ru/kiss/little-caeser-chords.htm
Привет, Гость.
Предлагаем пройти революционный курс по гитаре.
Подарок от PrimaNota.Ru, забирай!