PrimaNota.ru - самый крупный в мире бесплатный архив песенных текстов, аккордов, табулатур и нот


Kiss - Let Me Go Rock N Roll - аккорды и текст, таба, бас-таба, видео

Регистрация Запомнить меня
Войти через:  Facebook Google Twitter Vk Yandex Mail.ru

Kiss - Let Me Go Rock N Roll - аккорды и текст, таба, бас-таба, видео

Печатать
Просмотров: 228
Авторы: Gene Simmons, Paul Stanley

Let Me Go Rock N Roll
Kiss
Intro
G ---------------|---------------|---------------|---|----------------
D ---------------|-----------0---|---------------|---|----------------
A -------------0-|-------------0-|-------------0-|---|----------------
E -0-0-1-2-3-3---|-0-0-1-2-3-----|-0-0-1-2-3-3---|-0-|-0-0-0-0-0-0-0-0
                                      Lyric "Been under fire..."
G ---------|-------------------------|-------------------------|------
D ---------|-------------------------|-------------------------|------
A ---------|-------------------------|-------------------------|------
E -0-0-0-0-|-0-0-0-0-0-0-0-0-0-0-0-0-|-0-0-0-0-0-0-0-0-0-0-0-0-|-0-0-0

G ---------------|-------------------------|-----------------|--------
D ---------------|-------------------------|---------------0-|--------
A ---------------|-0-0-0-0-0-0-0-0-0-0-0-0-|-0-0-0-0-0-0-----|--------
E -0-0-0-0-0-0-3-|-------------------------|-------------3---|-0-0-0-0

G -----------------|---------------------|-------------------------|--
D -----------------|---------------------|-------------------------|--
A -----------------|---------------------|-0-0-0-0-0-0-0-0-0-0-0-0-|-0
E -0-0-0-0-0-0-0-0-|-0-0-0-0-0-0-0-0-0-3-|-------------------------|--

G -----------------------|-------------------------|------------------
D -----------------------|-------------------------|-0-0-0-0-0-0-0-0-0
A -0-0-0-0-0-0-0-0-0-0-0-|-3-3-3-3-3-3-3-3-3-3-3-3-|------------------
E -----------------------|-------------------------|------------------
                                        Chorus "Get me out of this..."
G -------|-------------------------|---|---------------------|--------
D -0-0-0-|-------------------------|-0-|---------------------|--------
A -------|-3-3-3-3-3-3-3-3-3-3-3-3-|---|---------------------|-0-0-0-0
E -------|-------------------------|---|-0-0-0-0-0-0-0-0-0-3-|--------

G -----------------|-------------------------|------------------------
D -----------------|-------------------------|---------------0-2-0----
A -0-0-0-0-0-0-0-0-|-------------------------|-0-0-0-0-0-0-0-------2--
E -----------------|-3-3-3-3-3-3-3-3-3-3-3-3-|-----------------------3

G -|---------------------|-------------------------|------------------
D -|---------------------|-------------------------|------------------
A -|---------------------|-0-0-0-0-0-0-0-0-0-0-0-0-|------------------
E -|-0-0-0-0-0-0-0-0-0-3-|-------------------------|-3-3-3-3-3-3-3-3-3

G -------|-----------------|-------------------------|----------------
D -------|---------------2-|-------------------------|----------------
A -------|-0-0-0-0-0-0-0---|-------------------------|----------------
E -3-3-3-|-----------------|-0-0-0-0-0-0-0-0-0-0-0-0-|-0-0-0-0-0-0-0-0
           Lyric
G ---------|-------------------------|---------------------|----------
D ---------|-------------------------|---------------------|----------
A ---------|-------------------------|---------------------|-0-0-0-0-0
E -0-0-0-0-|-0-0-0-0-0-0-0-0-0-0-0-0-|-0-0-0-0-0-0-0-0-0-3-|----------

G ---------------|-------------------------|-------------------------|
D ---------------|-------------------0-0-0-|-------------------------|
A -0-0-0-0-0-0-0-|-0-0-0-0-0-0-0-0-0-------|-------------------------|
E ---------------|-------------------------|-0-0-0-0-0-0-0-0-0-0-0-0-|

G ---------------------|-------------------------|--------------------
D ---------------------|-------------------------|--------------------
A ---------------------|-0-0-0-0-0-0-0-0-0-0-0-0-|-0-0-0-0-0-0-0-0-0-0
E -0-0-0-0-0-0-0-0-0-3-|-------------------------|--------------------

G -----|-------------------------|-------------------------|----------
D -----|-------------------------|-0-0-0-0-0-0-0-0-0-0-0-0-|----------
A -0-0-|-3-3-3-3-3-3-3-3-3-3-3-3-|-------------------------|-3-3-3-3-3
E -----|-------------------------|-------------------------|----------
                      Chorus
G ---------------|---|---------------------|-------------------------|
D ---------------|-0-|---------------------|-------------------------|
A -3-3-3-3-3-3-3-|---|---------------------|-0-0-0-0-0-0-0-0-0-0-0-0-|
E ---------------|---|-0-0-0-0-0-0-0-0-0-3-|-------------------------|

G -------------------------|-------------------------|----------------
D -------------------------|---------------0-2-0-----|----------------
A -------------------------|-0-0-0-0-0-0-0-------2---|----------------
E -3-3-3-3-3-3-3-3-3-3-3-3-|-----------------------3-|-0-0-0-0-0-0-0-0

G -----|-------------------------|-------------------------|----------
D -----|-------------------------|-------------------------|----------
A -----|-0-0-0-0-0-0-0-0-0-0-0-0-|-------------------------|-0-0-0-0-0
E -0-3-|-------------------------|-3-3-3-3-3-3-3-3-3-3-3-3-|----------
                    Play just like the intro        SOLO
G -----------------|---------------|---------------|---------------|--
D -----0-2-0-------|---------------|-----------0---|---------------|--
A -0-0-------2-----|-------------0-|-------------0-|-------------0-|--
E -------------3-2-|-0-0-1-2-3-3---|-0-0-1-2-3-----|-0-0-1-2-3-3---|-0

G -------------|---------------|---------------|---------------|---|--
D ---------0---|---------------|-----------0---|---------------|---|--
A -----------0-|-------------0-|-------------0-|-------------0-|---|--
E -0-1-2-3-----|-0-0-1-2-3-3---|-0-0-1-2-3-----|-0-0-1-2-3-3---|-0-|-0

G -----------------------|-------------------------|------------------
D -----------------------|-------------------------|------------------
A -----------------------|-------------------------|------------------
E -0-0-0-0-0-0-0-0-0-0-0-|-0-0-0-0-0-0-0-0-0-0-0-0-|-0-0-0-0-0-0-0-0-0
                                    Lyric
G -------|-------------------------|-------------------------|--------
D -------|-------------------------|-------------------------|--------
A -------|-------------------------|-------------------------|--------
E -0-0-0-|-0-0-0-0-0-0-0-0-0-0-0-0-|-0-0-0-0-0-0-0-0-0-0-0-0-|-0-0-0-0

G -------------|-------------------------|-------------------------|--
D -------------|-------------------------|-------------------0-0-0-|--
A -------------|-0-0-0-0-0-0-0-0-0-0-0-0-|-0-0-0-0-0-0-0-0-0-------|--
E -0-0-0-0-0-3-|-------------------------|-------------------------|-0

G -----------------------|---------------------|----------------------
D -----------------------|---------------------|----------------------
A -----------------------|---------------------|-0-0-0-0-0-0-0-0-0-0-0
E -0-0-0-0-0-0-0-0-0-0-0-|-0-0-0-0-0-0-0-0-0-3-|----------------------

G ---|-------------------------|-------------------------|------------
D ---|-------------------------|-------------------------|-0-0-0-0-0-0
A -0-|-0-0-0-0-0-0-0-0-0-0-0-0-|-3-3-3-3-3-3-3-3-3-3-3-3-|------------
E ---|-------------------------|-------------------------|------------
                                               Chorus
G -------------|-------------------------|---|---------------------|--
D -0-0-0-0-0-0-|-------------------------|-0-|---------------------|--
A -------------|-3-3-3-3-3-3-3-3-3-3-3-3-|---|---------------------|-0
E -------------|-------------------------|---|-0-0-0-0-0-0-0-0-0-3-|--

G -----------------------|-------------------------|------------------
D -----------------------|-------------------------|---------------0-2
A -0-0-0-0-0-0-0-0-0-0-0-|-------------------------|-0-0-0-0-0-0-0----
E -----------------------|-3-3-3-3-3-3-3-3-3-3-3-3-|------------------

G -------|
D -0-----|
A ---2---|
E -----3-|
Repeat chorus 'til the end
Добавлено: 25.02.2014
Другие материалы по этой песне:

Страница создана 22.03.2012
http://primanota.ru/kiss/let-me-go-rock-n-roll-chords.htm
Привет, Гость.
Предлагаем пройти революционный курс по гитаре.
Подарок от PrimaNota.Ru, забирай!