PrimaNota.ru - самый крупный в мире бесплатный архив песенных текстов, аккордов, табулатур и нот


Kiss - Kiss (album) - таба, видео

Регистрация Запомнить меня
Войти через:  Facebook Google Twitter Vk Yandex Mail.ru

Kiss - Kiss (album) - таба, видео

Печатать
Просмотров: 116
Key:
/    = slide up
\    = slide down
b    = bend (whole step)
b^   = bend (1/2 step)
b^^  = bend (1 1/2 steps)
pb   = pre-bend
r    = release-bend
t    = tap with righthand finger
h    = hammer-on
p    = pull-off
~    = Vibrato
*    = Natural Harmonic
#(#) = Trill
**   = Artificial Harmonic
x    = Dead notes (no pitch)
P.M. = Palm mute (- -> underneath indicates which notes)
(\)  = Dive w\bar
(/)  = Release w\bar
Tp   = Tap w\plectrum


Track 1 - Strutter

Rhythm Fig. 1

Eb|--7-7-7---------------------------------------------------------|
Bb|--7-7-7---------------------12----------------------------------|
Gb|--8-8-8---------------------12----------------12--12------------|
Db|--9-9-9---------------------12--------14------12--12------12-12-|
Ab|--9-9-9----11--9--11--9-----10----10--10--10--10--10--10--12-12-|
Eb|--7-7-7----7---7--7---7--7--------------------------------10-10-|

Eb|------------------------------5---------------------------------|
Bb|------------------------------5---------------------------------|
Gb|------------------------------6---------------------------------|
Db|--12--------------------------7----------------7----------------|
Ab|--12------14--12--14--12------7-------9--7--9--7----------------|
Eb|--10--10--10--10--10--10--10--5----5--5--5--5--5--5-------------|


Eb|--7-7-7---------------------------------------------------------|
Bb|--7-7-7---------------------12----------------------------------|
Gb|--8-8-8---------------------12----------------12--12------------|
Db|--9-9-9---------------------12--------14------12--12------12-12-|
Ab|--9-9-9----11--9--11--9-----10----10--10--10--10--10--10--12-12-|
Eb|--7-7-7----7---7--7---7--7--------------------------------10-10-|


Eb|----------------------------------------------------------------|
Bb|----------------------------------------------------------------|
Gb|----------------------------------------------------------------|
Db|------------------12--12-------------------------------(0)------|
Ab|--12------14------12--12--14--12--------14------12--12-(0)------|
Eb|--10--10--10--10--10--10--10--10----10--10--10--10--10----------|


Rhythm Fig. 2

Eb|----------------------------------------------|
Bb|--12-12-12------------------------------------|
Gb|--11-11-11------------12----------------------|
Db|--9--9--9-------------12----------------------|
Ab|----------------------10----------------------|
Eb|----------------------------------------------|


Eb|----------------------------------------------|
Bb|--15-15-15------------------------------------|
Gb|--14-14-14------------14--------14----14------|
Db|--12-12-12------------14--------14----14------|
Ab|----------------------12--------12----12------|
Eb|----------------------------------------------|


Eb|----------------------------------------------|
Bb|--12-12-12------------------------------------|
Gb|--11-11-11------------12----------------------|
Db|--9--9--9-------------12----------------------|
Ab|----------------------10----------------------|
Eb|----------------------------------------------|

Eb|----------------------------------------------|
Bb|--15-15-15----------------15------15----15----|
Gb|--14-14-14----------------14------14----14----|
Db|--12-12-12----------------12------12----12----|
Ab|----------------------------------------------|
Eb|----------------------------------------------|


Rhythm Fig. 3

Eb|--7-7-7---------------------------------------|
Bb|--7-7-7---------------------------------------|
Gb|--8-8-8---------------------------------------|
Db|--9-9-9--------9--9-----5--5--------5---------|
Ab|--9-9-9--------9--9-----5--5--7-----5---------|
Eb|--7-7-7--------7--7-----3--3--3--3--3---------|

Eb|----------------------------------------------|
Bb|--7-------------------7--8--8--8--8--8--7-----|
Gb|--7-----------7--7----7--7--7--7--7--7--7-----|
Db|--7-----9-----7--7----7--9--9--9--9--9--7-----|
Ab|--5--5--5--5--5--5----------------------------|
Eb|----------------------------------------------|

Eb|--7-7-7---------------------------------------|
Bb|--7-7-7---------------------------------------|
Gb|--8-8-8---------------------------------------|
Db|--9-9-9--------9--9-----5--5--------5---------|
Ab|--9-9-9--------9--9-----5--5--7-----5---------|
Eb|--7-7-7--------7--7-----3--3--3--3--3---------|

Eb|----------------------------------------------|
Bb|--7-------------------------------------------|
Gb|--7-----------7--7----------------------------|
Db|--7-----9-----7--7----7-------------------7---|
Ab|--5--5--5--5--5--5----7-------9--7--9--7--7---|
Eb|----------------------5----5--5--5--5--5--5---|


Rhythm Fig. 4a

Eb|----------------------------------------------|
Bb|--12------------------------15------15----15--|
Gb|--11------------------------14------14----14--|
Db|--9-------------------------12------12----12--|
Ab|----------------------------------------------|
Eb|----------------------------------------------|


Eb|----------------------------------------------|
Bb|--12------------------------------------------|
Gb|--11------------------------14------14----14--|
Db|--9-------------------------14------14----14--|
Ab|----------------------------12------12----12--|
Eb|----------------------------------------------|


Rhythm Fig. 4b

Eb|----------------------------------------------|
Bb|--12------------------------15------15----15--|
Gb|--11------------------------14------14----14--|
Db|--9-------------------------12------12----12--|
Ab|----------------------------------------------|
Eb|----------------------------------------------|

Eb|----------------------------------------------|
Bb|--12------------------------------------------|
Gb|--11--------------------14------14--14--14----|
Db|--9---------------------14------14--14--14----|
Ab|------------------------12------12--12--12----|
Eb|----------------------------------------------|


Rhythm Fig. 5

Eb|--7-7-7---------------------------------------|
Bb|--7-7-7---------------------------------------|
Gb|--8-8-8---------------------------------------|
Db|--9-9-9--------9--9-----5--5--------5---------|
Ab|--9-9-9--------9--9-----5--5--7-----5---------|
Eb|--7-7-7--------7--7-----3--3--3--3--3---------|

Eb|----------------------------------------------|
Bb|--7-------------------------------------------|
Gb|--7-----------7-------7-------------7----7----|
Db|--7-----9-----7----9--7-------9-----7----7----|
Ab|--5--5--5--5--5----5--5----5--5--5--5----5----|
Eb|----------------------------------------------|

Eb|--7-7-7---------------------------------------|
Bb|--7-7-7---------------------------------------|
Gb|--8-8-8---------------------------------------|
Db|--9-9-9--------9--9-----5--5--------5---------|
Ab|--9-9-9--------9--9-----5--5--7-----5---------|
Eb|--7-7-7--------7--7-----3--3--3--3--3---------|


Eb|----------------------------------------------|
Bb|--7-------------------------------------------|
Gb|--7-----------7--7----------------------------|
Db|--7-----9-----7--7----7-------------------7---|
Ab|--5--5--5--5--5--5----7-------9--7--9--7--7---|
Eb|----------------------5----5--5--5--5--5--5---|


Rhythm Fig. 6

Eb|--7-7-7---------------------------------------|
Bb|--7-7-7---------------------------------------|
Gb|--8-8-8---------------------------------------|
Db|--9-9-9--------9--9-----5--5--------5---------|
Ab|--9-9-9--------9--9-----5--5--7-----5---------|
Eb|--7-7-7--------7--7-----3--3--3--3--3---------|

Eb|----------------------------------------------|
Bb|--7-------------------7--8--8--8--8--8--7-----|
Gb|--7-----------7--7----7--7--7--7--7--7--7-----|
Db|--7-----9-----7--7----7--9--9--9--9--9--7-----|
Ab|--5--5--5--5--5--5----------------------------|
Eb|----------------------------------------------|

Eb|--7-7-7---------------------------------------|
Bb|--7-7-7---------------------------------------|
Gb|--8-8-8---------------------------------------|
Db|--9-9-9--------9--9-----5--5--------5---------|
Ab|--9-9-9--------9--9-----5--5--7-----5---------|
Eb|--7-7-7--------7--7-----3--3--3--3--3---------|

Eb|----------------------------------------------|
Bb|--7-------------------------------------------|
Gb|--7-----9-----7--7----------------------------|
Db|--7-----7-----7--7----7-------9-----7--7------|
Ab|--5--5--5--5--5--5----7-------7-----7--7------|
Eb|----------------------5----5--5--5--5--5------|


Rhythm Fig. 7

Eb|----------------------------------------------|
Bb|--12---------------15---15---15---15-15-15-15-|
Gb|--11---------------14---14---14---14-14-14-14-|
Db|--9----------------12---12---12---12-12-12-12-|
Ab|----------------------------------------------|
Eb|----------------------------------------------|


Eb|----------------------------------------------|
Bb|--12------------------------------------------|
Gb|--11------------------14--14--14--14--14--14--|
Db|--9-------------------14--14--14--14--14--14--|
Ab|----------------------12--12--12--12--12--12--|
Eb|----------------------------------------------|

Rhythm Fig. 8

Eb|----------------------------------------------|
Bb|----------------------------------------------|
Gb|--4------4--4---------------------------------|
Db|--4------4--4----------5------5---------------|
Ab|--2------2--2----------5------5---------------|
Eb|-----------------------3------3---------------|

Rhythm Fig. 9

Eb|----------------------------------------------|
Bb|--7------7--7---------------------------------|
Gb|--7------7--7----------12------12-------------|
Db|--9------9--9----------12------12-------------|
Ab|-----------------------10------10-------------|
Eb|----------------------------------------------|

Rhythm Fig. 10

Eb|----------------------------------------------|
Bb|----------------------------------------------|
Gb|----------------------------------------------|
Db|----------------------------------------------|
Ab|--0--2----2--------0--2--2----0--2--2----2----|
Eb|----------------------------------------------|

Eb|----------------------------------------------|
Bb|----------------------------------------------|
Gb|----------------------------------------------|
Db|--0--2----2----------0------------------------|
Ab|------------------------2------0--------------|
Eb|----------------------------------2-----------|

Rhythm Fig. 11

Eb|----------------------------------------------|
Bb|----------------------------------------------|
Gb|----------------------------------------------|
Db|----------------------------------------------|
Ab|--7--9----9--------7--9--9----7--9--9----9----|
Eb|----------------------------------------------|

Eb|----------------------------------------------|
Bb|----------------------------------------------|
Gb|----------------------------------------------|
Db|--7--9----9------------7----------------------|
Ab|--------------------------9------7------------|
Eb|------------------------------------9---------|

Rhythm Fig. 12

Eb|----------------------------------------------|
Bb|----------------------------------------------|
Gb|----------------------------------------------|
Db|----------------------------------------------|
Ab|--0--2----2--------0--2--2----0--2--2----2----|
Eb|----------------------------------------------|

Eb|----------------------------------------------|
Bb|----------------------------------------------|
Gb|--------------------------5------7------------|
Db|--0--2----2------------5--5------7--7---------|
Ab|-----------------------5--3------5--7---------|
Eb|-----------------------3------------5---------|

Rhythm Fig. 13

Eb|----------------------------------------------|
Bb|----------------------------------------------|
Gb|----------------------------------------------|
Db|----------------------------------------------|
Ab|--7--9----9--------7--9--9----7--9--9----9----|
Eb|----------------------------------------------|

Eb|----------------------------------------------|
Bb|----------------------------------------------|
Gb|--------------------------5------7------------|
Db|--7--9----9------------5--5------7--7---------|
Ab|-----------------------5--3------5--7---------|
Eb|-----------------------3------------5---------|

Rhythm Fig. 14

Eb|-----------------------------------7----------|
Bb|-----------------------------------7----------|
Gb|-----------------------------------8----------|
Db|--9-9-9----------------------------9----------|
Ab|--9-9-9----------------------------9----------|
Eb|--7-7-7----------------------------7----------|

Solo

Eb|------------------------------------------------------------------|
Bb|------------------------------------------------------------------|
Gb|--9b-----9b-----9b-----9b-----9b-----9b------9b--9b--9b--9b--9b---|
Db|------------------------------------------------------------------|
Ab|------------------------------------------------------------------|
Eb|------------------------------------------------------------------|


Eb|------------------------------------------------------------------|
Bb|-------------------------------10(7)-----10b-r10------------------|
Gb|--9b--9b--9b--9b---r9p7---7~--------------------------------------|
Db|------------------------9-----------------------------------------|
Ab|------------------------------------------------------------------|
Eb|------------------------------------------------------------------|
                                            Bend and release 15x

Eb|------------------------------------------------------------------|
Bb|--pb10---r10--pb10---r10-pb10--r10--7--10-10p7---7---7------------|
Gb|-----------------------------------------------9---9--------------|
Db|------------------------------------------------------------------|
Ab|------------------------------------------------------------------|
Eb|------------------------------------------------------------------|


Eb|------------------------------------------------------------------|
Bb|------19--22p19----19-22b---22b---22b---22b---22b--22b--22b--22b--|
Gb|--21------------21------------------------------------------------|
Db|------------------------------------------------------------------|
Ab|------------------------------------------------------------------|
Eb|------------------------------------------------------------------|


Eb|-------------------------------------------22b---r22-19-----------|
Bb|--22p19----19-22---19h22p19----19--22--19---------------22b---r22-|
Gb|--------21------------------21------------------------------------|
Db|------------------------------------------------------------------|
Ab|------------------------------------------------------------------|
Eb|------------------------------------------------------------------|


Eb|------------------------------------------------------------------|
Bb|--19--------------------------------------------------------------|
Gb|------21\---------------------------------------------------------|
Db|------------------------------------------------------------------|
Ab|------------------------------------------------------------------|
Eb|------------------------------------------------------------------|

Outro solo

Eb|---------7--------------------------------------------------------|
Bb|------7-(7)---10p7---7-10--10p7-10p7---7-10p7----7------10--------|
Gb|--9b---------------9-----------------9---------9---9/11-----------|
Db|------------------------------------------------------------------|
Ab|------------------------------------------------------------------|
Eb|------------------------------------------------------------------|
    < - 6x - >

Eb|------------------------------------------------------------------|
Bb|--10p7h10p7h10p7h10p7--10b---7------------------------------------|
Gb|--------------------------------7---------------------------------|
Db|-----------------------------------9--7-9---7---------------------|
Ab|-----------------------------------------------9--7--5--------5---|
Eb|----------------------------------------------------------/7------|


Eb|------------------------------------------------------------------|
Bb|------------------7------------10p7h10p7h10-12b^^-----12b^^-------|
Gb|--------7h9p7---7---9p7---7---------------------------------------|
Db|--------------9---------9-----------------------------------------|
Ab|--7--9------------------------------------------------------------|
Eb|------------------------------------------------------------------|
                                                        < 7x >

Eb|-------------------------------------10-11-12---10-12b---r12------|
Bb|--12b^^---r12-10h12p10----10-12-----------------------------------|
Gb|-----------------------11-----------------------------------------|
Db|------------------------------------------------------------------|
Ab|------------------------------------------------------------------|
Eb|------------------------------------------------------------------|
                                       < - 5x - >

Eb|--10h12p10-----10-------------------------------------------------|
Bb|-----------12------12b^^---r12---10-------------------------------|
Gb|-------------------------------------11--10--9--9p7---------------|
Db|-------------------------------------------------------7h9~-------|
Ab|------------------------------------------------------------------|
Eb|------------------------------------------------------------------|

STRUTTER
Paul Stanley, Gene Simmons

[Drum fill]
[Rhy. Fig 1 w/ Rhy. Fig 2]

[Rhy. Fig 3 w/ Rhy. Fig 4a]
I know a thing or two about her
I know she'll only make you cry
[Rhy. Fig 3 w/ Rhy. Fig 4b]
She'll let you walk the street beside her
But when she wants she'll pass you by

[Rhy. Fig 8 w/ Rhy. Fig 9] (2x)
Everybody says she's lookin' good
And the lady knows it's understood

[Rhy. Fig 10 w/ Rhy. Fig 11]
Strutter
[Rhy. Fig 12 w/ Rhy. Fig 13]

[Rhy. Fig 3 w/ Rhy. Fig 4a]
She wears her satins like a lady
She gets her way just like a child
[Rhy. Fig 3 w/ Rhy. Fig 4b]
You take her home and she says "Maybe, baby"
She takes you down and drives you wild

[Rhy. Fig 8 w/ Rhy. Fig 9] (2x)
Everybody says she's lookin' good
And the lady knows it's understood
Strutter

[Solo over Rhy. Fig 10 w/ Rhy. Fig 11 (2x)]
[Rhy. Fig 12 w/ Rhy. Fig 13]

[Rhy. Fig 5 w/ Rhy. Fig 4a]
I know a thing or two about her
I know she'll only make you cry
[Rhy. Fig 6 w/ Rhy. Fig 7]
She'll let you walk the street beside her
But when she wants she'll pass you by

[Rhy. Fig 8 w/ Rhy. Fig 9] (2x)
Everybody says she's lookin' good
And the lady knows it's understood

[Outro solo over Rhy. Fig 10 w/ Rhy. Fig 11 (2x)]
Strutter
Strutter
[Rhy. Fig 12 w/ Rhy. Fig 13]
Strutter

[Rhy. Fig 14]

Track 2 - Nothin' To Lose

Rhythm Fig. 1a

Eb|--------------------------------------------------------|
Bb|--------------------------------------------------------|
Gb|--------------------------------------------------------|
Db|-----------2-------0--------2----5\-4--2----------------|
Ab|--------------------------------------------------------|
Eb|--3p-2--0-------0--------0------------------------------|

Rhythm Fig.1b

Eb|------------------------------------------3-------------|
Bb|------------------------------------------3-------------|
Gb|------------------------------------------4-------------|
Db|-----------2-------0--------2----5\-4--0--5-------------|
Ab|------------------------------------------5-------------|
Eb|--3p-2--0-------0--------0----------------3-------------|


Rhythm Fig.1c

Eb|--------------------------------------------------------|
Bb|--------------------------------------------------------|
Gb|--------------------------------------------------------|
Db|-----------2-------0--------2----5\-4--0----------------|
Ab|--------------------------------------------------------|
Eb|--3p-2--0-------0--------0------------------------------|

Rhythm Fig. 2a

Eb|--------------------------------------------------------|
Bb|--------------------------------------------------------|
Gb|---------------9---------9--------------9--9------9-----|
Db|--9--9--11-----9--9--11--9-------11-----9--9--11--9-----|
Ab|--7--7--7---7--7--7--7---7----7--7---7--7--7--7---7-----|
Eb|--------------------------------------------------------|

Eb|--------------------------------------------------------|
Bb|--------------------------------------------------------|
Gb|--------------9--9-------------9--9---9----9--9---------|
Db|-------11-----9--9--11-(9)-----9--11--9----9--11--------|
Ab|----7--7---7--7--7--7---9/-11---------------------------|
Eb|--------------------------------------------------------|

Rhythm Fig. 2b

Eb|--------------------------------------------------------|
Bb|--------------------------------------------------------|
Gb|---------------9---------9--------------9--9------9-----|
Db|--9--9--11-----9--9--11--9-------11-----9--9--11--9-----|
Ab|--7--7--7---7--7--7--7---7----7--7---7--7--7--7---7-----|
Eb|--------------------------------------------------------|

Eb|--------------------------------------------------------|
Bb|--------------------------------------------------------|
Gb|--------------9--9------9-------------------------------|
Db|-------11-----9--9--11--9-----------5\-4--2-------------|
Ab|----7--7---7--7--7--7---7-------------------------------|
Eb|---------------------------------------------3p-2--0----|

Rhythm Fig. 2c

Eb|--------------------------------------------------------|
Bb|--------------------------------------------------------|
Gb|---------------9---------9--------------9--9------9-----|
Db|--9--9--11-----9--9--11--9-------11-----9--9--11--9-----|
Ab|--7--7--7---7--7--7--7---7----7--7---7--7--7--7---7-----|
Eb|--------------------------------------------------------|

Eb|--------------------------------------------------------|
Bb|--------------------------------------------------------|
Gb|--------------9--9------9--------------9--9------9------|
Db|-------11-----9--9--11--9-------11-----9--9--11--9------|
Ab|----7--7---7--7--7--7---7----7--7---7--7--7--7---7------|
Eb|--------------------------------------------------------|

Rhythm Fig. 3a

Eb|--------------------------------------------------------|
Bb|--9-----------------------------------------------------|
Gb|--9-----------------------------------------------------|
Db|--9-----------------------------------5\-4--2-----------|
Ab|--7-----------------------------------------------------|
Eb|-----------------------------------------------3p-2--0--|

Rhythm Fig. 3b

Eb|--------------------------------------------------------|
Bb|--9------------------9----------------------------------|
Gb|--9------------------9----------------------------------|
Db|--9------------------9----------------------------------|
Ab|--7------------------7----------------------------------|
Eb|--------------------------------------------------------|
   < - - - - - 3x - - - - - - >


Eb|--------------------------------------------------------|
Bb|--9----9----9--9----9-----------------------------------|
Gb|--9----9----9--9----9-----------------------------------|
Db|--9----9----9--9----9------5\-4--2----------------------|
Ab|--7----7----7--7----7-----------------------------------|
Eb|------------------------------------3p-2--0-------------|

Rhythm Fig. 4

Eb|--------------------------------------------------------|
Bb|--------------------------------------------------------|
Gb|-------------------4--------------4--4------------------|
Db|--4----------------4--------6-----4--4--6---------------|
Ab|--4----------------2-----2--2--2--2--2--2---------------|
Eb|--2----------2--2---------------------------------------|

Eb|--------------------------------------------------------|
Bb|--------------------------------------------------------|
Gb|--------------------------------------------------------|
Db|--4------------------5--5--5--5--5--5--5--5--5----------|
Ab|--4------------------5--5--5--5--5--5--5--5--5----------|
Eb|--2------------2--2--3--3--3--3--3--3--3--3--3----------|

Rhythm Fig. 5

Eb|--2-----------------------------------------------------|
Bb|--2------------------4----------------------------------|
Gb|--3------------------4----------------------------------|
Db|--4------------------4----------------------------------|
Ab|--4------------------2----------------------------------|
Eb|--2-----------------------------------------------------|

Eb|--2-----------------------------------------------------|
Bb|--2-----------------------------------------------------|
Gb|--3-----------------------------------------------------|
Db|--4--------------5--5--5--5--5--5--5--5--5--------------|
Ab|--4--------------5--5--5--5--5--5--5--5--5--------------|
Eb|--2--------------3--3--3--3--3--3--3--3--3--------------|

Rhythm Fig. 6

Eb|--------------------------------------------------------|
Bb|--------------------------------------------------------|
Gb|--------------------------------------------------------|
Db|--------------------------------------------------------|
Ab|--7--7--9-----7--7--9--7-------9-----7--7--9------------|
Eb|--5--5--5--5--5--5--5--5----5--5--5--5--5--5------------|

Eb|--------------------------------------------------------|
Bb|--------------------------------------------------------|
Gb|--9-9-9-------------9---------9--------------9--9-------|
Db|--9-9-9------11-----9--9--11--9-------11-----9--9--11---|
Ab|--7-7-7---7--7---7--7--7--7---7----7--7---7--7--7--7----|
Eb|--------------------------------------------------------|

Rhythm Fig. 7

Eb|--------------------------------------------------------|
Bb|------10----10----------10------10----------------------|
Gb|------9-----9-----------9-------9-----------------------|
Db|------7-----7-----------7-------7-----------------------|
Ab|--------------------------------------------------------|
Eb|--------------------------------------------------------|

Eb|--------------------------------------------------------|
Bb|------9----9----------9------9--------------------------|
Gb|------9----9----------9------9--------------------------|
Db|------9----9----------9------9--------------------------|
Ab|--------------------------------------------------------|
Eb|--------------------------------------------------------|

Rhythm Fig. 8

Eb|--------------------------------------------------------|
Bb|--------------------------------------------------------|
Gb|--------------------------------------------------------|
Db|--------------------------------------------------------|
Ab|--7--7--9-----7--7--8--9--------------------------------|
Eb|--5--5--5--5--5--5--6--7--------------------------------|

Rhythm Fig. 9

Eb|--------------------------------------------------------|
Bb|------10------10--11--12--------------------------------|
Gb|------9-------9---10--11--------------------------------|
Db|------7-------------------------------------------------|
Ab|--------------------------------------------------------|
Eb|--------------------------------------------------------|

Rhythm Fig. 10

Eb|--------------------------------------------------------|
Bb|--------------------------------------------------------|
Gb|--9-----------9------9---------------9------------------|
Db|--9----11-----9------9--------11-----9------------------|
Ab|--7----7---7--7------7-----7--7---7--7------------------|
Eb|--------------------------------------------------------|

Eb|--------------------------------------------------------|
Bb|--------------------------------------------------------|
Gb|--------------------------------------------------------|
Db|--7----------7------7--------------7--------------------|
Ab|--7----9-----7------7--------9-----7--------------------|
Eb|--5----5--5--5------5-----5--5--5--5--------------------|

Rhythm Fig. 11

Eb|--------------------------------------------------------|
Bb|--9--------9----x--9-----------9------------------------|
Gb|--9--------9----x--9-----------9------------------------|
Db|--9--------9----x--9-----------9------------------------|
Ab|--7--------7----x--7-----------7------------------------|
Eb|--------------------------------------------------------|

Eb|--------------------------------------------------------|
Bb|--2--------2----x--2-----------2------------------------|
Gb|--2--------2----x--2-----------2------------------------|
Db|--2--------2----x--2-----------2------------------------|
Ab|--0--------0----x--0-----------0------------------------|
Eb|--------------------------------------------------------|


Rhythm Fig. 12

Eb|--------------------------------------------------------|
Bb|--------------------------------------------------------|
Gb|--9--9--9--9--9--9--9--9--------------------------------|
Db|--9--9--9--9--9--9--9--9--------------------------------|
Ab|--7--7--7--7--7--7--7--7--------------------------------|
Eb|--------------------------------------------------------|
    < - - - - 2x - - - - - >


Solo

Eb|--------------------------------------------------------|
Bb|--15b~------15b-r15p12-----15b~------15b-r15p12---------|
Gb|-----------------------14-----------------------14------|
Db|--------------------------------------------------------|
Ab|--------------------------------------------------------|
Eb|--------------------------------------------------------|


Eb|--15b---r15---------------------------------------------|
Bb|-------------12-----------------------------------------|
Gb|-----------------14b--r14--12---------------------------|
Db|----------------------------------------12--12----------|
Ab|--------------------------------x-12h14---------12h14---|
Eb|--------------------------------------------------------|


Eb|--------------------------------------------------------|
Bb|---------------------15b~------15b-r15p12-----15b~------|
Gb|------------------------------------------14------------|
Db|--12-12h14p12-------------------------------------------|
Ab|--------------14----------------------------------------|
Eb|--------------------------------------------------------|


Eb|--------------------15b---r15-15b--r15------------------|
Bb|--15b-r15p12----------------------------12-15-12--------|
Gb|-------------14-----------------------------------------|
Db|--------------------------------------------------------|
Ab|--------------------------------------------------------|
Eb|--------------------------------------------------------|


Eb|--------------------------------------------------------|
Bb|--------------------------------------------------------|
Gb|------------------12-12h14p12----12\--------------------|
Db|--------12--12h14-------------14------------------------|
Ab|--12h14-------------------------------------------------|
Eb|--------------------------------------------------------|

NOTHIN' TO LOSE
Gene Simmons


[Rhy. Fig 1a] (2x)
[Rhy. Fig 1b]

[Rhy. Fig 2a w/  Rhy. Fig 3a]
Before I had a baby
I didn't care anyway
[Rhy. Fig 2b]
I thought about the back door
I didn't know what to say

[Rhy. Fig 2c w/ Rhy. Fig 3a]
But once I got a baby
I, I tried every way
[Rhy. Fig 2b]
She didn't wanna do it
But she did anyway

[Rhy. Fig 4 w/ Rhy. Fig 5]
But baby please don't refuse
You know you got nothin' to lose
You got nothin' to lose

[Rhy. Fig 6 w/ Rhy. Fig 7] (3x)
You got, got nothin' to lose, well nothin'
You got, got nothin' to lose, yeah baby
You got, got nothin' to lose
You got, got nothin' to lose, you g-g-g-g-got nothin'
You got, got nothin' to lose, well come on mama
You got, got nothin' to lose, yeah shake your
[Rhy. Fig 8 w/ Rhy. Fig 9]
You got, got
You got, you got, you got nothin' to lose

[Rhy. Fig 1a]
[Rhy. Fig 1c]

[Rhy. Fig 2c w/ Rhy. Fig 3b]
So now I've got a baby
And we've tried every way
[Rhy. Fig 2b]
You know she wants to do it
And she does anyway

[Rhy. Fig 4 w/ Rhy. Fig 5]
But baby please don't refuse
You know you got nothin' to lose

[Rhy. Fig 6 w/ Rhy. Fig 7] (3x)
You got nothin' to lose
You got, got nothin' to lose, yeah baby
You got, got nothin' to lose, yeah
You got, got nothin' to lose, you feel so good
You got, got nothin' to lose, well come on mama
You got, got nothin' to lose, ch-ch-ch-ch-ch-ch yeah
You got, got nothin' to lose, well come on
[Rhy. Fig 8 w/ Rhy. Fig 9]
You got, got
You got, you got you, got nothin' to lose

[Solo over Rhy. Fig 10 w/ Rhy. Fig 11]

[Drums and piano only]
You got, got nothin' to lose
You got, got nothin' to lose, ooh baby
You got, got nothin' to lose, yeah
[Rhy. Fig 12]
You got, got nothin' to lose, yeah

[Rhy. Fig 6 w/ Rhy. Fig 7] (repeat and fade)
You got, got nothin' to lose, oh you g-g-got, baby
You got, got nothin' to lose, shake it honey
You got, got nothin' to lose, oh you know you're a sweet thing
You got, got nothin' to lose, oh really mama
You got, got nothin' to lose, yeah you really can move it
You got, got nothin' to lose, oh you g-g-got nothin'
You got, got nothin' to lose,
Yeah shake it, shake it, shake it, shake it
You got, got nothin' to lose
You got, got nothin' to lose
You got, got

Track 3 - Firehouse

Rhythm Fig. 1

Eb|----------------------------------------------|
Bb|----------------------------------------------|
Gb|--2----2----4----2----2----2--2--------7------|
Db|--2----4----6----4----2----4--2--------7------|
Ab|----------------------------------------------|
Eb|----------------------------------------------|

Eb|----------------------------------------------|
Bb|----------------------------------------------|
Gb|--7--7--7--7--7--7----9----9--9--9--9--9--9---|
Db|--9--7--9--7--9--7----7----7--7--7--7--7--7---|
Ab|----------------------0----0--0--0--0--0--0---|
Eb|----------------------------------------------|

Eb|----------------------------------------------|
Bb|----------------------------------------------|
Gb|--2-----2----4-----2-----2-----2--2--------7--|
Db|--2-----4----6-----4-----2-----4--2---2----7--|
Ab|--0--0-----0----0-----0--0--0-----0---0-------|
Eb|----------------------------------------------|

Eb|----------------------------------------------|
Bb|----------------------2-----------------------|
Gb|--7--7--7--7--7--7----2-----------------------|
Db|--9--7--9--7--9--7----2-----------------------|
Ab|----------------------0-----------------------|
Eb|----------------------------------------------|


Rhythm Fig. 2

Eb|----------------------------------------------|
Bb|----------------------------------------------|
Gb|----------------------------------------------|
Db|----------------------------------------------|
Ab|--0--------------------0----------------------|
Eb|---------3----0--3--0---------3----0--3--0----|

Eb|----------------------------------------------|
Bb|--8--7--8--7--8--7-----2----------------------|
Gb|--7--7--7--7--7--7-----2----------------------|
Db|--9--7--9--7--9--7-----2----------------------|
Ab|--------------------0--0----------------------|
Eb|----------------------------------------------|


Rhythm Fig. 3a

Eb|----------------------------------------------|
Bb|----------------------------------------------|
Gb|----------------------------------------------|
Db|----------------------------------------------|
Ab|--0--------------------0----------------------|
Eb|---------3----0--3--0---------3----0--3--0----|


Eb|----------------------------------------------|
Bb|-----------------------2----------------------|
Gb|--7--7--7--7--7--7-----2----------------------|
Db|--9--7--9--7--9--7-----2----------------------|
Ab|--------------------0--0----------------------|
Eb|----------------------------------------------|

Rhythm Fig. 3b

Eb|----------------------------------------------|
Bb|----------------------------------------------|
Gb|----------------------------------------------|
Db|----------------------------------------------|
Ab|--0--------------------0----------------------|
Eb|---------3----0--3--0---------3----0--3--0----|

Eb|----------------------------------------------|
Bb|--8--7--8--7--8--7-----2----------------------|
Gb|--7--7--7--7--7--7-----2----------------------|
Db|-----------------------2----------------------|
Ab|--------------------0--0----------------------|
Eb|----------------------------------------------|

Rhythm Fig. 3c

Eb|----------------------------------------------|
Bb|----------------------------------------------|
Gb|----------------------------------------------|
Db|----------------------------------------------|
Ab|--0--------------------0----------------------|
Eb|---------3----0--3--0---------3----0--3--0----|

Eb|----------------------------------------------|
Bb|--8--7--8--7--8--7-----5----------------------|
Gb|--7--7--7--7--7--7-----6----------------------|
Db|-----------------------7----------------------|
Ab|--------------------0--0----------------------|
Eb|----------------------------------------------|


Rhythm Fig. 4a

Eb|----------------------------------------------|
Bb|----------------------------------------------|
Gb|--2----x--------------2----x------------------|
Db|--2----x--------------2----x------------------|
Ab|--0----x--------------0----x------------------|
Eb|----------------------------------------------|

Eb|----------------------------------------------|
Bb|--8--7--8--7--8--7----2-----------------------|
Gb|--7--7--7--7--7--7----2-----------------------|
Db|--9--7--9--7--9--7----2-----------------------|
Ab|----------------------0-----------------------|
Eb|----------------------------------------------|

Rhythm Fig. 4b

Eb|----------------------------------------------|
Bb|----------------------------------------------|
Gb|--2----x--------------2----x------------------|
Db|--2----x--------------2----x------------------|
Ab|--0----x--------------0----x------------------|
Eb|----------------------------------------------|

Eb|----------------------------------------------|
Bb|--8--7--8--7--8--7-----2----------------------|
Gb|--7--7--7--7--7--7-----2----------------------|
Db|--9--7--9--7--9--7-----2----------------------|
Ab|--------------------0--0----------------------|
Eb|----------------------------------------------|

Rhythm Fig. 4c

Eb|----------------------------------------------|
Bb|----------------------------------------------|
Gb|--2----x--------------2-----------------------|
Db|--2----x--------------2-----------------------|
Ab|--0----x--------------0----3b---3b-0----------|
Eb|--------------------------------------3--0----|
                              1/4-step bends


Eb|----------------------------------------------|
Bb|--8--7--8--7--8--7-----2----------------------|
Gb|--7--7--7--7--7--7-----2----------------------|
Db|--9--7--9--7--9--7-----2----------------------|
Ab|--------------------0--0----------------------|
Eb|----------------------------------------------|


Rhythm Fig. 4d

Eb|----------------------------------------------|
Bb|--10----x--------------10----x----------------|
Gb|--9-----x--------------9-----x----------------|
Db|--11----x--------------11----x----------------|
Ab|--0--------------------0----------------------|
Eb|----------------------------------------------|

Eb|----------------------------------------------|
Bb|--8--7--8--7--8--7-----2----------------------|
Gb|--7--7--7--7--7--7-----2----------------------|
Db|--9--7--9--7--9--7-----2----------------------|
Ab|--------------------0--0----------------------|
Eb|----------------------------------------------|

Rhythm Fig. 5

Eb|----------------------------------------------|
Bb|----------------------------------------------|
Gb|--5------------------3--------4--4------------|
Db|--5--------5---------3--------4--4--2---------|
Ab|--3--------5---------1--------2--2--2---------|
Eb|-----------3------------------------0---------|

Rhythm Fig. 6

Eb|----------------------------------------------|
Bb|----------------------------------------------|
Gb|--4------4--4---------------------------------|
Db|--4------4--4---------2------2--2-------------|
Ab|--2------2--2---------2------2--2-------------|
Eb|----------------------0------0--0-------------|

Eb|----------------------------------------------|
Bb|----------------------------------------------|
Gb|----------------------------------------------|
Db|--3------3--3---------5--5----5---------------|
Ab|--3------3--3---------5--5----5---------------|
Eb|--1------1--1---------3--3----3---------------|

Rhythm Fig. 7

Eb|----------------------------------------------|
Bb|-------------------------------------------7--|
Gb|--2-----2----4-----2-----2-----2--2--------7--|
Db|--2-----4----6-----4-----2-----4--2---2----7--|
Ab|--0--0-----0----0-----0--0--0-----0---0-------|
Eb|----------------------------------------------|

Eb|----------------------------------------------|
Bb|--8--7--8--7--8--7----------------------------|
Gb|--7--7--7--7--7--7----9----7\-5----------5----|
Db|--9--7--9--7--9--7----9----7\-5----5-----5----|
Ab|-----------------------------------5h-7-------|
Eb|----------------------------------------------|


Rhythm Fig. 8a

Eb|----------------------------------------------|
Bb|----------------------------------------------|
Gb|----------------------------------------------|
Db|----------------------------------------------|
Ab|--0--------------------0----------------------|
Eb|---------3----0--3--0-------------------------|

Eb|----------------------------------------------|
Bb|--8----7----8---------------------------------|
Gb|--7----7----7-------2-----2-------------------|
Db|--9----7----9-------2h4---2-------------------|
Ab|-----------------0-----------0----------------|
Eb|----------------------------------------------|

Rhythm Fig. 8b

Eb|----------------------------------------------|
Bb|----------------------------------------------|
Gb|----------------------------------------------|
Db|----------------------------------------------|
Ab|--0--------------------0----------------------|
Eb|---------3----0--3--0-------------------------|

Eb|----------------------------------------------|
Bb|----------------------------------------------|
Gb|-----------------------------2----------------|
Db|-/5----4----2-------2h4---2--2----------------|
Ab|-----------------0-----------0----------------|
Eb|----------------------------------------------|


Riff 1

Eb|----------------------------------------------|
Bb|----------------------------------------------|
Gb|--7b~-------------------7b~-------------------|
Db|----------------------------------------------|
Ab|----------------------------------------------|
Eb|----------------------------------------------|
   Vib. by releasing bend a half-step then bending up again

Riff 2

Eb|--8--------8----------------------------------|
Bb|--11b~-----11b--r11p8-----8-------8-----------|
Gb|----------------------10--10b~----10b--r10p8--|
Db|----------------------------------------------|
Ab|----------------------------------------------|
Eb|----------------------------------------------|


Eb|-----------6-------8-----9------7--7----------|
Bb|--------------------------------7--7----------|
Gb|--------/7-----7/8----/9---9----8--8--9-------|
Db|--10----------------------------------9-------|
Ab|--------------------------------------7-------|
Eb|----------------------------------------------|


Riff 3

Eb|--8--------8----------------------------------|
Bb|--11b~-----11b--r11p8-----8-------8-----------|
Gb|----------------------10--10b~----10b--r10p8--|
Db|----------------------------------------------|
Ab|----------------------------------------------|
Eb|----------------------------------------------|


Eb|-----------6-----4-----3----------------------|
Bb|----------------------------------------------|
Gb|--------/7-----5-----3----1-------------------|
Db|--10------------------------------------------|
Ab|----------------------------------------------|
Eb|----------------------------------------------|


Riff 4

Eb|----------------------------------------------|
Bb|----------------------------------------------|
Gb|--9b--r9-7--------11b--r11-9------12b--r12-10-|
Db|-----------9~----------------9~---------------|
Ab|----------------------------------------------|
Eb|----------------------------------------------|


Eb|----------------------------------------------|
Bb|---------------------13b~---------------------|
Gb|---------14b--r14-12--------------------------|
Db|--10~-----------------------------------------|
Ab|----------------------------------------------|
Eb|----------------------------------------------|


Riff 5

Eb|----------------------------------------------|
Bb|--8--7----------------------------------------|
Gb|--------5--4~---------------------------------|
Db|----------------------------------------------|
Ab|----------------------------------------------|
Eb|----------------------------------------------|

Riff 6

Eb|----------------------------------------------|
Bb|----------------------------------------------|
Gb|--7b----7--5----------------------------------|
Db|---------------------5------------------------|
Ab|----------------5h-7--------------------------|
Eb|----------------------------------------------|

Solo

Eb|----------------------------------------------|
Bb|----------------------------------------------|
Gb|--pb7---x-7--x-7--x-7--x-7--x-7--x-7---5--5---|
Db|----------------------------------------------|
Ab|----------------------------------------------|
Eb|----------------------------------------------|
           Gradually release bend - - >

Eb|----------------------------------------------|
Bb|----------------------------------------------|
Gb|---------------x-2--x-4-4b^--4p2---2~---------|
Db|--7~-----------------------------4------------|
Ab|---------/3-----------------------------------|
Eb|----------------------------------------------|
           P.M.

Eb|----------------------------------------------|
Bb|----------------------------------------------|
Gb|----------------------------------------------|
Db|--x-2--------------------------5-5-x-5-x-5h7--|
Ab|---------x-x-5---x-3~-----5h7-----------------|
Eb|----------------------------------------------|


Eb|----------------------------------------------|
Bb|----------------------------------------------|
Gb|------------------------pb7--x-7--x-7--x-7----|
Db|--5--5--5--x-5-x-5h7--------------------------|
Ab|----------------------------------------------|
Eb|----------------------------------------------|
                              Gradually release bend

Eb|----------------------------------------------|
Bb|--8b----------r8------------------------------|
Gb|----------------------------------------------|
Db|----------------------------------------------|
Ab|----------------------------------------------|
Eb|----------------------------------------------|


FIREHOUSE
Paul Stanley

[Rhy. Fig 1 w/ Riff 1]
Whoo, hoo, yeah

[Rhy. Fig 3a w/ Rhy. Fig 3b]
Whoo, hoo, yeah
[Rhy. Fig 3a w/ Rhy. Fig 3c]

[Rhy. Fig 4a]
She'll adore you and she'll floor you
With her wisdom and her vision
[Rhy. Fig 4b]
And you'll love it and think of it
Till you lose all intuition
Come on
[Rhy. Fig 5 w/ Riff 2]

[Rhy. Fig 4c w/ Rhy. Fig 4d] (2x)
She can move you and improve you
With her love and her devotion
And she'll thrill you and she'll chill you
But you're headed for commotion

[Rhy. Fig 4a w/ Rhy. Fig 4d]
And you'll need her so you'll feed her
With your endless dedication
[Rhy. Fig 4c w/ Rhy. Fig 4d]
And the quicker you get sicker
She'll remove your medication
[Rhy. Fig 5 w/ Riff 3]

[Rhy. Fig 2] (2x)
Get the firehouse
'Cause she sets my soul afire
Get the firehouse
And the flames keep gettin' higher

[Rhy. Fig 6 w/ Riff 4]
She's like bad weather but it seems so good
You'd never leave her but you know you should

[Solo over Rhy. Fig 2 (2x)]

[Rhy. Fig 6 w/ Riff 4 and Riff 5]
She's like bad weather but it seems so good
You'd never leave her but you know you should

[Rhy. Fig 7 w/ Riff 6]
Ooh

[Rhy. Fig 2]
Get the firehouse
'Cause she sets my soul afire
[Rhy. Fig 8a w/ Rhy. Fig 8b]
Get the firehouse
Whoo, hoo, yeah
Get the firehouse
Whoo, hoo, yeah

Track 4 - Cold Gin

Rhythm Fig. 1a

Eb|--------------------------------------------------------|
Bb|--------------------------------------------------------|
Gb|--9------7----7----7----7--7/-9--9----------------------|
Db|--7------5----4----5----4--5/-7--7----------------------|
Ab|--0------0----0----0----0--0-----0----------------------|
Eb|--------------------------------------------------------|


Rhythm Fig. 1b

Eb|--------------------------------------------------------|
Bb|--------------------------------------------------------|
Gb|--9--9----7----7----7----7--7/-9--9---------------------|
Db|--7--7----5----4----5----4--5/-7--7---------------------|
Ab|--0--0----0----0----0----0--0-----0---------------------|
Eb|--------------------------------------------------------|


Rhythm Fig. 1c

Eb|---------------------------------3----------------------|
Bb|---------------------------------3----------------------|
Gb|--9--9----7----7----7----7--7----0----------------------|
Db|--7--7----5----4----5----4--5----0----------------------|
Ab|--0--0----0----0----0----0--0----x----------------------|
Eb|---------------------------------3----------------------|


Rhythm Fig. 2a

Eb|--------------------------------------------------------|
Bb|--2------3----2----3----2--3p-2--2----------------------|
Gb|--2------4----2----4----2--4p-2--2----------------------|
Db|--2------2----2----2----2--2-----2----------------------|
Ab|--0------0----0----0----0--0-----0----------------------|
Eb|--------------------------------------------------------|


Rhythm Fig. 2b

Eb|--------------------------------------------------------|
Bb|--2-------3----2----3----2--3p-2--2---------------------|
Gb|--2-------4----2----4----2--4p-2--2---------------------|
Db|--2-------2----2----2----2--2-----2---------------------|
Ab|--0--0----0----0----0----0--0-----0---------------------|
Eb|--------------------------------------------------------|


Rhythm Fig. 2c

Eb|--------------------------------------------------------|
Bb|--2------3----2----3----2--3p-2--2----------------------|
Gb|--2------4----2----4----2--4p-2--2----------------------|
Db|--2------2----2----2----2--2-----2----------------------|
Ab|--0------0----0----0----0--0-----0----3~----------------|
Eb|--------------------------------------------------------|

Rhythm Fig. 2d

Eb|---------------------------------3----------------------|
Bb|--2-------3----2----3----2--3----3----------------------|
Gb|--2-------4----2----4----2--4----0----------------------|
Db|--2-------2----2----2----2--2----0----------------------|
Ab|--0--0----0----0----0----0--0----x----------------------|
Eb|---------------------------------3----------------------|


Rhythm Fig. 3a

Eb|--------------------------------------------------------|
Bb|--------------------------------------------------------|
Gb|--14--14---------------12--12---------------------------|
Db|--14--14---------------12--12---------------------------|
Ab|--0---0----------------0---0----------------------------|
Eb|--------------------------------------------------------|


Rhythm Fig. 3b

Eb|--------------------------------------------------------|
Bb|--2--2-----------------3--3-----------------------------|
Gb|--2--2-----------------0--0-----------------------------|
Db|--2--2-----------------0--0-----------------------------|
Ab|--0--0-----------------0--0-----------------------------|
Eb|--------------------------------------------------------|


Rhythm Fig. 3c

Eb|--------------------------------------------------------|
Bb|--2--2-----------------3--3-----------------------------|
Gb|--2--2-----------------0--0-----------------------------|
Db|--2--2-----------------0--0-----------------------------|
Ab|--0--0-----------------0--0--------3~-------------------|
Eb|--------------------------------------------------------|


Rhythm Fig. 4a

Eb|--------------------------------------------------------|
Bb|--------------------------------------------------------|
Gb|--9--9---------------9--9--x-x-x-x-12--11~--------------|
Db|--9--9---------------9--9--x-x-x-x-12--12~--------------|
Ab|--7--7---------------7--7--x-x-x-x----------------------|
Eb|--------------------------------------------------------|
    < - - - - - - - - 3x - - - - - - - - - - >


Eb|--------------------------------------------------------|
Bb|--------------------------------------------------------|
Gb|--9--9--------------------------------------------------|
Db|--9--9--------------------------------------------------|
Ab|--7--7--------------------------------------------------|
Eb|--------------------------------------------------------|


Rhythm Fig. 4b

Eb|--------------------------------------------------------|
Bb|--9--9---------------9--9-------------------------------|
Gb|--9--9---------------9--9--x-x-x-x----------------------|
Db|--9--9---------------9--9--x-x-x-x-12--12---------------|
Ab|--7--7---------------7--7--x-x-x-x-10--12---------------|
Eb|---------------------------------------10---------------|

Eb|--------------------------------------------------------|
Bb|--9--9\--------------9--9-------------------------------|
Gb|--9--9\--------------9--9--x-x-x-x----------------------|
Db|--9--9\--------------9--9--x-x-x-x-12--12---------------|
Ab|--7--7\--------------7--7--x-x-x-x-10--12---------------|
Eb|---------------------------------------10---------------|
    < - - - - - - - - 2x - - - - - - - - - - >


Eb|--------------------------------------------------------|
Bb|--9--9--------------------------------------------------|
Gb|--9--9--------------------------------------------------|
Db|--9--9--------------------------------------------------|
Ab|--7--7--------------------------------------------------|
Eb|--------------------------------------------------------|


Rhythm Fig. 5a

Eb|--------------------------------------------------------|
Bb|--------------------------------------------------------|
Gb|------------5--5----------------------------------------|
Db|--5--5------5--5----------------------------------------|
Ab|--5--5------3--3------3--3-2-3-2---3--3-2-3-------------|
Eb|--3--3--------------------------------------1-----------|

Eb|--------------------------------------------------------|
Bb|--------------------------------------------------------|
Gb|------------5--5----------------------------------------|
Db|--5--5------5--5----------------------------------------|
Ab|--5--5------3--3------3-2-3-2-3-2-3-2-3-2-3-2-3---------|
Eb|--3--3------------------------------------------1-------|


Eb|--------------------------------------------------------|
Bb|--------------------------------------------------------|
Gb|------------5--5----------------------------------------|
Db|--5--5------5--5----------------------------------------|
Ab|--5--5------3--3------3--3-2-3-2---3--3-2-3-------------|
Eb|--3--3--------------------------------------1-----------|

Eb|--------------------------------------------------------|
Bb|--------------------------------------------------------|
Gb|------------5--5----------------------------------------|
Db|--5--5------5--5----------------------------------------|
Ab|--5--5------3--3------3-2-3-2-3-2-3-2-3-2-3-2-3---------|
Eb|--3--3-------------------------------------------3------|


Eb|--------------------------------------------------------|
Bb|--------------------------------------------------------|
Gb|------------7--7----------------------------------------|
Db|--7--7------7--7----------------------------------------|
Ab|--7--7------5--5------5--5-4-5-4---5--5-4-5-------------|
Eb|--5--5--------------------------------------3-----------|


Eb|--------------------------------------------------------|
Bb|--------------------------------------------------------|
Gb|------------7--7----------------------------------------|
Db|--7--7------7--7----------------------------------------|
Ab|--7--7------5--5------5-4-5-4-5-4-5-4-5-4-5-4-5---------|
Eb|--5--5------------------------------------------3-------|


Eb|--------------------------------------------------------|
Bb|--------------------------------------------------------|
Gb|------------7--7----------------------------------------|
Db|--7--7------7--7----------------------------------------|
Ab|--7--7------5--5------5--5-4-5-4---5--5-4-5-------------|
Eb|--5--5--------------------------------------3-----------|


Eb|--------------------------------------------------------|
Bb|--------------------------------------------------------|
Gb|------------7--7----------------------------------------|
Db|--7--7------7--7----------------------------------------|
Ab|--7--7------5--5------5-4-5-4-5-4-5-4-5-4-5-4-5-4-5-4---|
Eb|--5--5--------------------------------------------------|


Rhythm Fig. 5b

Eb|--------------------------------------------------------|
Bb|--------------------------------------------------------|
Gb|------------5--5----------------------------------------|
Db|--5--5------5--5----------------------------------------|
Ab|--5--5------3--3------3--3-2-3-2---3--3-2-3-------------|
Eb|--3--3--------------------------------------1-----------|


Eb|--------------------------------------------------------|
Bb|--------------------------------------------------------|
Gb|------------5--5------5---------------------------------|
Db|--5--5------5--5------5---------------------------------|
Ab|--5--5------3--3------3---------------------------------|
Eb|--3--3--------------------------------------------------|


Eb|--------------------------------------------------------|
Bb|--------------------------------------------------------|
Gb|------------5--5----------------------------------------|
Db|--5--5------5--5----------------------------------------|
Ab|--5--5------3--3------3--3-2-3-2---3--3-2-3-------------|
Eb|--3--3--------------------------------------1-----------|


Eb|--------------------------------------------------------|
Bb|--------------------------------------------------------|
Gb|------------5--5------5---------------------------------|
Db|--5--5------5--5------5-----------------5-5-------------|
Ab|--5--5------3--3------3-----------------5-5-------------|
Eb|--3--3----------------------------------3-3-------------|


Eb|--------------------------------------------------------|
Bb|--------------------------------------------------------|
Gb|------------7--7----------------------------------------|
Db|--7--7------7--7----------------------------------------|
Ab|--7--7------5--5------5--5-4-5-4---5--5-4-5-------------|
Eb|--5--5--------------------------------------3-----------|


Eb|--------------------------------------------------------|
Bb|--------------------------------------------------------|
Gb|------------7--7------7---------------------------------|
Db|--7--7------7--7------7-----------------5-5-------------|
Ab|--7--7------5--5------5-----------------5-5-------------|
Eb|--5--5----------------------------------3-3-------------|

Eb|--------------------------------------------------------|
Bb|--------------------------------------------------------|
Gb|------------7--7----------------------------------------|
Db|--7--7------7--7----------------------------------------|
Ab|--7--7------5--5------5--5-4-5-4---5--5-4-5-------------|
Eb|--5--5--------------------------------------3-----------|


Eb|-------------------------------------------------------|
Bb|-------------------------------------------------------|
Gb|------------7--7------7--------------------------------|
Db|--7--7------7--7------7--------------------------------|
Ab|--7--7------5--5------5--------------------------------|
Eb|--5--5-------------------------------------------------|


Rhythm Fig. 6a

Eb|--------------------------------------------------------|
Bb|--------------------------------------------------------|
Gb|--9--9-------------------------9------7-----------------|
Db|--9--9-----------9------9------9------7------7----------|
Ab|--7--7------7h11---7h11---7----7------5------4----------|
Eb|--------------------------------------------------------|
    < - - - - - - 3x - - - - - >


Rhythm Fig. 6b

Eb|--------------------------------------------------------|
Bb|-----------------10------10-9---------------------------|
Gb|--9--9------9----9--9----9--9---9------7----------------|
Db|--9--9------9h11----9h11----9---9------7------7---------|
Ab|--7--7--------------------------7------5------4---------|
Eb|--------------------------------------------------------|
    < - - - - - - 3x - - - - - >

Riff 1

Eb|--------------------------------------------------------|
Bb|--------------------------------------------------------|
Gb|--2------------------------------2-----2---2------------|
Db|--2------------------------------2-----2---2------------|
Ab|--0------------------------0--3b----3b-----0------------|
Eb|--------------------------------------------------------|
                                 1/4-step bends

Riff 2

Eb|--5-----------------------------------------------------|
Bb|--5-----------------------------------------------------|
Gb|--2-----------------------------------------------------|
Db|--2-----------------------------------------------------|
Ab|--0-----------------------------------------------------|
Eb|--------------------------------------------------------|

Riff 3

Eb|--12----------------------------------------------------|
Bb|--12----------------------------------------------------|
Gb|--14b---------------------------------------------------|
Db|--------------------------------------------------------|
Ab|--------------------------------------------------------|
Eb|--------------------------------------------------------|

Riff 4

Eb|--12h15p12----------------------------------------------|
Bb|-----------15-12h15p12----------------------------------|
Gb|-----------------------14-12h14p12----------------------|
Db|-----------------------------------14-12h14p12----------|
Ab|-----------------------------------------------14--12~--|
Eb|--------------------------------------------------------|

Riff 5

Eb|--------12-------12-------12----------------------------|
Bb|-----12-------12-------12----12\------------------------|
Gb|--13-------14-------15----------------------------------|
Db|--------------------------------------------------------|
Ab|--------------------------------------------------------|
Eb|--------------------------------------------------------|
    Let ring - - - - - - - - >

COLD GIN
Ace Frehley

[Rhy. Fig 1a]
[Rhy. Fig 1b]
Whoo
[Rhy. Fig 1a w/ Riff 1]
[Rhy. Fig 1b]
alright
[Rhy. Fig 1a w/ Rhy. Fig 2a]
[Rhy. Fig 1b w/ Rhy. Fig 2b]
[Rhy. Fig 1a w/ Rhy. Fig 2a]
[Rhy. Fig 1b w/ Rhy. Fig 2b]

[Rhy. Fig 3a w/ Rhy. Fig 3b]
My heater's broke and I'm so tired
[Rhy. Fig 1a w/ Rhy. Fig 2a]
[Rhy. Fig 3a w/ Rhy. Fig 3b]
I need some fuel to build a fire
[Rhy. Fig 1a w/ Rhy. Fig 2a]
[Rhy. Fig 3a w/ Rhy. Fig 3b]
The girl next door, her lights are out, yeah
[Rhy. Fig 1a w/ Rhy. Fig 2a]
[Rhy. Fig 3a w/ Rhy. Fig 3b]
The landlord's gone, I'm down and out

[Rhy. Fig 1a w/ Rhy. Fig 2a]
[Rhy. Fig 1b w/ Rhy. Fig 2b]

[Rhy. Fig 4a w/ Rhy. Fig 4b]
Ooh, it's cold gin time again
You know it'll always win
Cold gin time again
You know it's the only thing
[Riff 3]
That keeps us together, ow

[Rhy. Fig 1a w/ Rhy. Fig 2c]
[Rhy. Fig 1b w/ Rhy. Fig 2c]
[Rhy. Fig 1b w/ Rhy. Fig 2c]
[Rhy. Fig 1b w/ Rhy. Fig 2b]

[Rhy. Fig 3a w/ Rhy. Fig 3c]
It's time to leave and get another quart
[Rhy. Fig 1a w/ Rhy. Fig 2a]
[Rhy. Fig 3a w/ Rhy. Fig 3b]
Around the corner at the liquor store
[Rhy. Fig 1a w/ Rhy. Fig 2a]
[Rhy. Fig 3a w/ Rhy. Fig 3c]
Haha, the cheapest stuff is all I need
[Rhy. Fig 1a w/ Rhy. Fig 2a]
[Rhy. Fig 3a w/ Rhy. Fig 3b]
To get me back on my feet again

[Rhy. Fig 1a w/ Rhy. Fig 2c]
[Rhy. Fig 1b w/ Rhy. Fig 2b]

[Rhy. F
Добавлено: 01.04.2012
Другие материалы по этой песне:
  • Аккорды и текст

Страница создана 01.04.2012
http://primanota.ru/kiss/kiss-album-chords.htm
Привет, Гость.
Предлагаем пройти революционный курс по гитаре.
Подарок от PrimaNota.Ru, забирай!