PrimaNota.ru - самый крупный в мире бесплатный архив песенных текстов, аккордов, табулатур и нот


Kiss - Into The Void - аккорды и текст, таба, видео

Регистрация Запомнить меня
Войти через:  Facebook Google Twitter Vk Yandex Mail.ru

Kiss - Into The Void - аккорды и текст, таба, видео

Печатать
Просмотров: 280
Into The Void
Kiss
		   t. See http://www..net/faq/ for more information.                     #
#-----------------------------------------------------------------------------#


INTO THE VOID (from the KISS-LP "PSYCHO CIRCUS")
-------------

transcribed by Mark (mark@kisstabs.com)

Eb Tuning

Key:
/    = slide up
\    = slide down
b    = bend (whole step)
b^   = bend (1/2 step)
pb   = pre-bend
r    = release-bend
h^   = hammer-on
p^   = pull-off
~    = Vibrato
*    = Natural Harmonic
#(#) = Trill
**   = Artificial Harmonic
x~   = Pick Slide
x    = Muted String (Palm Muting)
X    = Muted String (Fretboard Muting)


Rhythm Fig. 1
                        end. 1
Eb|--------------------|-------------------------------|
Bb|--------------------|-------------------------------|
Gb|--------------------|--------------------0----------|
Db|--------------------|------0------------------------|
Ab|---------6--7--6--7-|-4b^-----4--0------------------|
Eb|--\12-/-------------|----------------3------3--2--0-|

   end. 2                  end. 3
Eb|----------------------|-----------------------------|
Bb|----------------------|-----------------------------|
Gb|----------------------|--8\9--8\9---6\7-7-7---------|
Db|------------------5~--|--8\9--8\9---6\7-7-7---------|
Ab|----------5-7---------|--6\7--6\7---4\5-5-5---------|
Eb|--5~-6-7-------7------|-----------------------------|

   end. 4
Eb|----------------------------------------------------|
Bb|----------------------------------------------------|
Gb|----------------------------------------------------|
Db|------------------7/--------------------------------|
Ab|----------5-7-----7/--------------------------------|
Eb|--5~-6-7-------7--5/--------------------------------|

Rhythm Fig. 2

Eb|--0-------------------------------------------------|
Bb|--0-------------------------------------------------|
Gb|--1------------7\9--7\9---6\7-7--7/6----------------|
Db|--2------------7\9--7\9---6\7-7--7/6----------------|
Ab|--2------------5\7--5\7---4\5-5--5/4----------------|
Eb|--0----12/--------------------------------3b^-------|

Eb|--0-------------------------------------------------|
Bb|--0-------------------------------------------------|
Gb|--1------------7\9--7\9---6\7-7--7/6----------------|
Db|--2------------7\9--7\9---6\7-7--7/6----------------|
Ab|--2------------5\7--5\7---4\5-5--5/4----------------|
Eb|--0----12/--------------------------------3-2-------|

Eb|-----0----------------------------------------------|
Bb|-----0----------------------------------------------|
Gb|--1----------------7\9--7\9---6\7-7--7/6------------|
Db|--2----------------7\9--7\9---6\7-7--7/6------------|
Ab|--2----------------5\7--5\7---4\5-5--5/4---0-2------|
Eb|--0-------------------------------------------------|
     Toggle Switch>

Rhythm Fig. 2a

Eb|--0-------------------------------------------------|
Bb|--0-------------------------------------------------|
Gb|--1------------7\9--7\9---6\7-7--7/6----------------|
Db|--2------------7\9--7\9---6\7-7--7/6----------------|
Ab|--2------------5\7--5\7---4\5-5--5/4----------------|
Eb|--0----12/--------------------------------3b^-------|

Eb|--0-------------------------------------------------|
Bb|--0-------------------------------------------------|
Gb|--1------------7\9--7\9---6\7-7--7/6----------------|
Db|--2------------7\9--7\9---6\7-7--7/6----------------|
Ab|--2------------5\7--5\7---4\5-5--5/4----------------|
Eb|--0---------------------------------------3-2-------|
     Toggle Switch>

Eb|-----0----\16---------------------------------------|
Bb|-----0----\17---------------------------------------|
Gb|--1----------------7\9--7\9---6\7-7--7/6------------|
Db|--2----------------7\9--7\9---6\7-7--7/6------------|
Ab|--2----------------5\7--5\7---4\5-5--5/4---0-2------|
Eb|--0-------------------------------------------------|


Rhythm Fig. 3

Eb|--2---------2---0-------2---------------------------|
Bb|--3---------3---0-------3---------------------------|
Gb|--2----2----2---1-------2---2---2-------------------|
Db|--0----2----0---2-------0---2---2-------------------|
Ab|-------0--------2--0-2------0---4-------------------|
Eb|----------------0-----------------------------------|
                                    Ride B5 Chord>

Rhythm Fig. 4

Eb|----------------------------------------------------|
Bb|-------------------8-8-7-------11-11-10-----13-13-13|
Gb|-2--------------7--7-7-7---10--10-10-10--12-12-12-12|
Db|-2--------------7--7-7-7---10--10-10-10--12-12-12-12|
Ab|-0--3p^0-3p^0---5----------8-------------10---------|
Eb|----------------------------------------------------|

   end.1
Eb|-----------0--0---0--------------0--0--0------------|
Bb|---8--6----0--0-----0------------0--0----0----------|
Gb|---7--5----1----------1----------1---------1--------|
Db|---5--3----2---------------------2------------------|
Ab|-----------2---------------------2------------------|
Eb|-----------0---------------3b^---0------------------|

   end. 2
Eb|----------------------------------------------------|
Bb|---8--6---------------------------------------------|
Gb|---7--5---------------------------------------------|
Db|---6--3---------------------------------------------|
Ab|----------------------------------------------------|
Eb|----------------------------------------------------|


Rhythm Fig. 5

Eb|------------------------------------------0--0------|
Bb|------------------------------------------0----0----|
Gb|--2------------4------------7----2--------1------1--|
Db|--2------------4------------7----2--------2---------|
Ab|--0------------2------------5----0--------2---------|
Eb|-------------------------------------3b^--0---------|
      Ride Chord>  Ride Chord>           -----2x----->


Riff. 1

Eb|--5--3-3-5-3----------------------------------------|
+b|--5--5-5-5-5----------------------------------------|
Gb|----------------------------------------------------|
Db|----------------------------------------------------|
Ab|----------------------------------------------------|
Eb|----------------------------------------------------|


Solo

Eb|----------------------------------------------------|
Bb|----------------------------------------------------|
Gb|--------------------------5-7-7p^5----5-7-5~--------|
Db|---5h^7-7--7**~-7**~---\7----------7----------------|
Ab|----------------------------------------------------|
Eb|----------------------------------------------------|

Eb|----------------------------------------------------|
Bb|----8-10-10b-10b*-10b*-r10-8h^10p^8---8h^10~~-------|
Gb|-/9---------------------------------9---------------|
Db|----------------------------------------------------|
Ab|----------------------------------------------------|
Eb|----------------------------------------------------|

Eb|--8-9-10--8-9-10--8-9-10-------7-7-7--10-9-7--------|
Bb|-------------------------0-----7-7-7---------10-9-7-|
Gb|----------------------------9b----------------------|
Db|----------------------------------------------------|
Ab|----------------------------------------------------|
Eb|----------------------------------------------------|

Eb|--------------------------------10---14-----5---9---|
Bb|--10p^9h^10p^9p^7\5h^7p^5~------10--/15-----5--/10--|
Gb|----------------------------/11----------/6---------|
Db|----------------------------------------------------|
Ab|----------------------------------------------------|
Eb|----------------------------------------------------|

Eb|-17b-17b-17b-17b--17b---r17----12--15--15-14-12-----|
Bb|----------------------------------------------------|
Gb|----------------------------------------------------|
Db|----------------------------------------------------|
Ab|----------------------------------------------------|
Eb|----------------------------------------------------|

Eb|----------------------------------------------------|
Bb|15-14-12--------------------------------------------|
Gb|---------14-13-12-----------------------------------|
Db|------------------14-13-12--------------------------|
Ab|---------------------------14-13-12-14-12-11h^12p^11|
Eb|----------------------------------------------------|

Eb|----------------------------------------------------|
Bb|----------------------------------------------------|
Gb|----------------------------------------------------|
Db|----------------------------------------------------|
Ab|11~~------------------------------------------------|
Eb|----------------------------------------------------|
            Toggle Switch>

Into The Void (Ace Frehley, Carl Cochran)

[Rhythm Fig. 1 w/end.1] (3x)
[Rhythm Fig. 1 w/end.2]

[Rhythm Fig. 2]
lyrics

[Rhythm Fig. 3]
lyrics

[Rhythm Fig. 4] (3x) w/[Riff.1 Repeated]
lyrics
[Rhythm Fig. 4 w/ end.1] w/[Riff.1 Repeated]
Into the void.
Feel like .....

[Rhythmm Fig. 2a]
[Rhythm Fig. 3]
[Rhythm Fig. 4] (3x) w/[Riff.1 Repeated]
[Rhythm Fig. 4 w/ end.1] w/[Riff.1 Repeated]

[Solo] w/[Rhythm Fig. 5]

[Rhythm Fig. 1 w/end.1] (3x)
[Rhythm Fig. 1 w/end.3]

[Rhythm Fig. 4] (5x) w/[Riff.1 Repeated]
[Rhythm Fig. 4 w/ end.1] w/[Riff.1 Repeated]
[Rhythm Fig. 1 w/end.1] (3x)
[Rhythm Fig. 1 w/end.4]     
Добавлено: 14.10.2013
Другие материалы по этой песне:

Страница создана 10.03.2012
http://primanota.ru/kiss/into-the-void-chords.htm
Привет, Гость.
Предлагаем пройти революционный курс по гитаре.
Подарок от PrimaNota.Ru, забирай!