PrimaNota.ru - самый крупный в мире бесплатный архив песенных текстов, аккордов, табулатур и нот


Kiss - Im An Animal - текст песни, таба, бас-таба, видео

Регистрация Запомнить меня
Войти через:  Facebook Google Twitter Vk Yandex Mail.ru

Kiss - Im An Animal - текст песни, таба, бас-таба, видео

Печатать
Просмотров: 262
Уроки эстрадного вокала в Санкт-Петербурге
Авторы: Gene Simmons, Paul Stanley, Tommy Thayer

Tabbed by: Daniel Garner
Email: daniel_garner@abv.bg


Tuning: Half-step down from standard(EADGBE)

I've put b(bend) and v(vibrato) on most places necessary.


Intro/Chorus
e|---------------------------------------------------------------------------|
B|---------------------------------------------------------------------------|
G|----------7-8-9---------12--11--10-----------------------------------------|
D|---5-6-7--7-8-9-----2---x---x---x------------------------------------------|
A|---5-6-7--5-6-7-----2---10--9---8--(vibrato this string)-------------------|
E|---3-4-5------------0------------------------------------------------------|

e|---------------------------------------------------------------------------|
B|---------------------------------------------------------------------------|
G|-----------------------------------12--11--12------------------------------|
D|--2----------------------------2---x---x---x-------------------------------|
A|--2---7-5-7-5------------------2---10--9---8--(vibrato this string)--------|
E|--0-----------7/3-3-3-0-3-5----0-------------------------------------------|

e|---------------------------------------------------------------------------|
B|---------------------------------------------------------------------------|
G|---------------------------------------------------------------------------|
D|--2---------------------------------------5-6-7----------------------------|
A|--2---------------------------------------5-6-7----------------------------|
E|--0--3/14\3(just slide through the neck)--3-4-5----------------------------|

e|---------------------------------------------------------------------------|
B|---------------------------------------------------------------------------|
G|------12--11--10-----------------------------------------------------------|
D|--2---x---x---x------2-----------------------------------------------------|
A|--2---10--9---8------2---7-5-7-5-------------------------------------------|
E|--0------------------0-----------7/3-3-3-0-3-5-----------------------------|

e|---------------------------------------------------------------------------|
B|---------------------------------------------------------------------------|
G|------12--11--10----------7-8-9--------------------------------------------|
D|--2---x---x---x----5-6-7--7-8-9--------------------------------------------|
A|--2---10--9---8----5-6-7--5-6-7--------------------------------------------|
E|--0----------------3-4-5---------------------------------------------------|


Verse
e|-----------------------------------------------------------------|
B|-----------------------------------------------------------------|
G|------------------------7/9--------------------------------------|
D|--2-2-2----------2-2-2--7/9---2-2-2---------5--4/5\4-------------|
A|--2-2-2--0-1v----2-2-2--5/7---2-2-2--0-1v---5--4/5\4-------------|
E|--0-0-0----------0-0-0--------0-0-0---------3--2/3\2-------------|

e|-----------------------------------------------------------------|
B|-----------------------------------------------------------------|
G|------------------------7/9--------------------------------------|
D|--2-2-2----------2-2-2--7/9---2-2-2---------5--5/7---------------|
A|--2-2-2--0-1v----2-2-2--5/7---2-2-2--0-1v---5--5/7---------------|
E|--0-0-0----------0-0-0--------0-0-0---------3--3/5---------------|

Bridge
e|-----------------------------------------------------------------|
B|-----------------------------------------------------------------|
G|-----------------------------------------------------------------|
D|---9-----7-----10----12------------------------------------------|
A|---9-----7-----10----12----(strum according to the rhythm)-------|
E|---7-----5-----8-----10------------------------------------------|

 At 1:29
e|--------------------------------------------------------------------------|
B|--------------------------------------------------------------------------|
G|--------------------------------------------------------------------------|
D|-------7b--7-7-7-7-7-7/5-(you can add pinch harmonics on this string)-----|
A|--------------------------------------------------------------------------|
E|--5b----------------------------------------------------------------------|

Interlude
e|---------------------------------------------------------------------------|
B|---------------------------------------------------------------------------|
G|------------------9-7----9-7-----------------------------------------------|
D|--2--2-2----------9-7----9-7-----2--2-2------------------------------------|
A|--2--2-2---/7--------------------2--2-2---/7---7-5-------------------------|
E|--0--0-0--------0------0---------0--0-0------------7-5-7-5-3---------------|


Solo
e|--12-10--------12-10--------12-10--------12-10---------12-10---------------|
B|--------12-10--------12-10--------12-10---------12-10--------12-10---------|
G|---------------------------------------------------------------------------|
D|---------------------------------------------------------------------------|
A|---------------------------------------------------------------------------|
E|---------------------------------------------------------------------------|

e|--12-10--------12-10--------12-10--------12-10-----------------------------|
B|--------12-10--------12-10--------12-10--------12-10-12-10b----------------|
G|---------------------------------------------------------------------------|
D|---------------------------------------------------------------------------|
A|---------------------------------------------------------------------------|
E|---------------------------------------------------------------------------|

e|---------------------------------------------------------12----12-15-12-15---|
B|---------------------------------------12----12-15-12-15----15---------------|
G|---------------------12----12-14-12-14----14---------------------------------|
D|---12----12-14-12-14----14---------------------------------------------------|
A|------14---------------------------------------------------------------------|
E|-----------------------------------------------------------------------------|

e|--17-15-17--19-17-19-17-19b--------|
B|-----------------------------------|
G|-----------------------------------| Continues
D|-----------------------------------|
A|-----------------------------------|
E|-----------------------------------|

e|--21^22--19-18-17--15-17-15------21^22--19-18-17--15-17-15-18^19----------|
B|----------------------------17--------------------------------------------|
G|--------------------------------------------------------------------------|
D|--------------------------------------------------------------------------|
A|--------------------------------------------------------------------------|
E|--------------------------------------------------------------------------|

e|--12-10--------12-10--------12-10-----------------------------------------|
B|--------12-10--------12-10---------12-11-10-8-10b-------------------------|
G|--------------------------------------------------------------------------|
D|--------------------------------------------------------------------------|
A|--------------------------------------------------------------------------|
E|--------------------------------------------------------------------------|

e|-------------------------------------------------------------|
B|---------------------------------------14-14-14--------------|
G|--------------------12----12-14-12-14--14-14-14--------------|
D|--12----12-14-12-14----14------------------------------------|
A|-----14------------------------------------------------------|
E|-------------------------------------------------------------|


At 3:02
e|---------------------------------------------|
B|---------------------------------------------|
G|-----14---16--17v------19v-------------------|
D|---------------------------------------------|
A|---------------------------------------------|
E|---------------------------------------------|


Outro
e|--------------------------------------------------------------------|
B|--------------------------------------------------------------------|
G|---------7-8-9----------7-8-9----------7-8-9------------------------|
D|--5-6-7--7-8-9---5-6-7--7-8-9---5-6-7--7-8-9-------2-2------2-2-----|
A|--5-6-7--5-6-7---5-6-7--5-6-7---5-6-7--5-6-7-------2-2------2-2-----|
E|--3-4-5----------3-4-5----------3-4-5--------------0-0------0-0-----|


Song Progression:

Intro
Verse (x2 times)
Bridge
Chorus
Verse (only once after the 1:29 lick)
Bridge
Chorus
Interlude (x2 times)
Solo (rhythm plays the interlude in the background)
Bridge
Chorus
Outro
Добавлено: 21.04.2012
Другие материалы по этой песне:

Страница создана 21.04.2012
http://primanota.ru/kiss/im-an-animal-chords.htm
Привет, Гость.
Предлагаем пройти революционный курс по гитаре.
Подарок от PrimaNota.Ru, забирай!