PrimaNota.ru - самый крупный в мире бесплатный архив песенных текстов, аккордов, табулатур и нот


Kiss - Hard Times - аккорды и текст, таба, видео

Регистрация Запомнить меня
Войти через:  Facebook Google Twitter Vk Yandex Mail.ru

Kiss - Hard Times - аккорды и текст, таба, видео

Печатать
Просмотров: 180
Авторы музыки: Ace Frehley
Авторы текста: Ace Frehley
Hard Times
Kiss
Gtr I
Wx2 W H E E E E
|------------|----------|--------------|
|------------|----------|--------------|
|------------|----------|--------------|
|------------|----------|--------2-3-5-|


E E E E E E E E E E E E E E E E E E E E E E E E
|-----------------|-----------------|-----------------|
|-----------------|-----------------|-----------------|
|---------------7-|---0-5-0-4-2-2-0-|---------------7-|
|---0-3-0-2-0-0---|-----------------|---0-3-0-2-0-0---|


Verse
E E E E E E E E E E E E E E E E E E E E E E E E
|-----------------||------------------|-----------------|
|-----------------||o-----------------|-----------------|
|---0-5-0-4-2-2-0-||o---------------7-|---0-5-0-4-2-0-0-|
|-----------------||----0-3-0-2-0-0---|-----------------|


E E E E E E E E E E E E E E E E +E E E E E E E E
|-----------------|-----------------|-------------------|
|-----------------|-----------------|-------------------|
|---------------7-|---0-5-0-4-2-4-5-|-(5)-5-4---2-0-0-7-|
|---0-3-0-2-0-0---|-----------------|-------------------|


+E E E E E Q E W H E E E E
|------------------|----------|--------------|
|------------------|----------|--------------|
|-(7)-7-5---4-2----|----------|--------------|
|------------------|----------|--------2-3-5-|


E E E E E E E E E E E E E E E E E E E E E E E E
|-----------------|-----------------|-----------------|
|-----------------|-----------------|-----------------|
|---------------7-|---0-5-0-4-2-0-0-|---------------7-|
|---0-3-0-2-0-0---|-----------------|---0-3-0-2-0-0---|


E E E E E E E E +E E E E E E E E +E E E E E E E E
|-----------------|-------------------|-------------------|
|-----------------|-------------------|-------------------|
|---0-5-0-4-2-4-5-|-(5)-5-4---2-0-0-7-|-(7)-7-5-5-4-4-2---|
|-----------------|-------------------|-------------------|


Pre-Chorus
W H E E E E +E E E E E E E E
|----------|--------------||-------------------|
|----------|--------------||-------------------|
|----------|--------------||-------------------|
|----------|--------0-0-1-||-(1)-1-1-1-1-1-1-3-|


+E E E E E E E E Q Q H H Q E E
|-------------------|-------------|-------------||
|-------------------|-------------|-----------7-||
|-------------------|-------------|-----------0-||
|-(3)-3-3-3-3-3-3-3-|-3\----------|-------------||


+W +H. +E E +E E E E E E E E
|------------|----------------|-------------------|
|-(7)--------|-(7)------(7)---|-------------------|
|-(0)--------|-(0)------(0)-5-|-(5)-0-4-0-2-0-0-7-|
|------------|----------------|-------------------|


+E E E E E Q E Q H. +H. +E E
|------------------|------------|----------------|
|------------------|----7-------|-(7)------(7)---|
|-(7)-0-5-0-4-2----|----0-------|-(0)------(0)-5-|
|------------------|------------|----------------|


+E E E E E E E E +E E E E E Q E Q H.
|-------------------|------------------|----------|
|-------------------|------------------|----7-----|
|-(5)-0-4-0-2-0-0-7-|-(7)-0-5-0-4-2----|----0-----|
|-------------------|------------------|----------|


1.
+W W W
|------------|----------|-------||
|-(7)--------|----------|------o||
|-(0)--------|----------|------o||
|------------|----------|-------||


2.
W W H E E E E
|----------|----------|--------------||
|----------|----------|--------------||
|----------|----------|--------------||
|----------|----------|--------2-3-5-||


Q H. +H. +E E +E E E E E E E E +E E E E E E E E 5x
||-------------|----------------|-------------------|---------------------||
||o----7-------|-(7)------(7)---|-------------------|--------------------o||
||o----0-------|-(0)------(0)-5-|-(5)-0-4-0-2-0-0-7-|-(7)-0-5-0-4-2-2-0--o||
||-------------|----------------|-------------------|---------------------||
Добавлено: 12.04.2014
Другие материалы по этой песне:
  • Аккорды и текст

Страница создана 13.03.2012
http://primanota.ru/kiss/hard-times-chords.htm
Привет, Гость.
Предлагаем пройти революционный курс по гитаре.
Подарок от PrimaNota.Ru, забирай!