PrimaNota.ru - самый крупный в мире бесплатный архив песенных текстов, аккордов, табулатур и нот


Kiss - Getaway - аккорды и текст, таба, бас-таба, видео

Регистрация Запомнить меня
Войти через:  Facebook Google Twitter Vk Yandex Mail.ru

Kiss - Getaway - аккорды и текст, таба, бас-таба, видео

Печатать
Просмотров: 193
Авторы музыки: Ace Frehley
Авторы текста: Ace Frehley
Getaway
Kiss
(Intro)
Gb|-----------------------------------------------------|
Db|-----------------------------------------------------|
Ab|------------5-------3-3------------------------------|
Eb|---3---------------------3---------------------------|
 
Gb|-----------------------------------------------------|
Db|-------5--------5------------------------------------| x2
Ab|---5-7------5-7-----7-6-5---3-3----------------------|
Eb|---------------------------------3-------------------|

Gb|----------------9-----------------9------------------|
Db|-5-6-7--7-10--7---7-10-7---7-10-7---7---3---5---7----|
Bb|-----------------------------------------------------|
Eb|-----------------------------------------------------|
|------x2------|

Gb|-----------9-----------------9-----------------------|
Db|---7-10--7---7-10-7---7-10-7---7---------------------|
Bb|-----------------------------------3---5-------------|
Eb|-----------------------------------------------------|
|------x2------|

Gb|-----------------------------------------------------|
Db|------------------------------------3----5-----------|
Bb|-------3---------------3-----------------------------|
Eb|--5--5---5-5-0-3--5--5---5-5--3-5--------------------|
|-----x2-----|

Gb|-----------------------------------------------------|
Db|-----------------------------------------------------|
Bb|-------3---------------3------------3----5-----------|
Eb|--5--5---5-5-0-3--5--5---5-5--3-5--------------------|
|-----x2-----|

Gb|-----------------------------------------------------|
Db|-----------------------------------------------------|
Ab|------------5-------3-3------------------------------|
Eb|---3---------------------3---------------------------|

Gb|-----------------------------------------------------|
Db|-------5--------5------------------------------------|
Ab|---5-7------5-7-----7-6-5---3-3----------------------|
Eb|---------------------------------3-------------------|

Gb|----------------9-----------------9------------------|
Db|-5-6-7--7-10--7---7-10-7---7-10-7---7---3---5---7----|
Bb|-----------------------------------------------------|
Eb|-----------------------------------------------------|
|------x2------|

Gb|-----------9-----------------9-----------------------|
Db|---7-10--7---7-10-7---7-10-7---7---------------------|
Bb|-----------------------------------3---5-------------|
Eb|-----------------------------------------------------|
|------x2------|

Gb|-----------------------------------------------------|
Db|------------------------------------3----5-----------|
Bb|-------3---------------3-----------------------------|
Eb|--5--5---5-5-0-3--5--5---5-5--3-5--------------------|
|-----x2-----|

Gb|-----------------------------------------------------|
Db|-----------------------------------------------------|
Bb|-------3---------------3------------3----5-----------|
Eb|--5--5---5-5-0-3--5--5---5-5--3-5--------------------|
|-----x2-----|

Gb|-----------------------------------------------------|
Db|-----------------------------------------------------|
Ab|------------5-------3-3------------------------------|
Eb|---3---------------------3---------------------------|

Gb|-----------------------------------------------------|
Db|-------5--------5------------------------------------| x2
Ab|---5-7------5-7-----7-6-5---3-3----------------------|
Eb|---------------------------------3-------------------|

(During Solo)
Gb|-------------------------5---3-----------------------|
Db|--------------------3-5--------5-3-------------------|
Ab|----------0-2-3---5----------------5--1--------------|
Eb|--3-4-5-----------------------------------1----------|
|----------x3------------|

Gb|-----------------------------------------------------|
Db|-----------------------------------------------------|
Ab|------------5-------3-3------------------------------|
Eb|---3---------------------3---------------------------|

Gb|-----------------------------------------------------|
Db|-------5--------5------------------------------------| x2
Ab|---5-7------5-7-----7-6-5---3-3----------------------|
Eb|---------------------------------3-------------------|

Gb|-----------------------------------------------------|
Db|-----------------------------------------------------|
Ab|---1-------------------------------------------------|
Eb|--------1--------------------------------------------|

Gb|-----------------------------------------------------|
Db|------5------5------5--------------------------------|_
Ab|---------------------------0-1-----------------------| |
Eb|--3-3----3-3----3-3----3-3---------1-----------------| |
|_x3
Gb|-----------------------------------------------------| |
Db|------5------5------5------------5--3----------------| |
Ab|---------------------------0-1---------5-----5-3-----|_|
Eb|--3-3----3-3----3-3----3-3---------------1-------5---|
|----------------------x2----------------------|

(Outro)
Gb|---6\5-3-5-3------------------------------------------|
Db|-------------5-3-5-3----------------------------------|
Ab|---------------------5--------------------------------|
Eb|-----------------------3-----------3------------------|
Добавлено: 29.10.2013
Другие материалы по этой песне:

Страница создана 01.03.2012
http://primanota.ru/kiss/getaway-chords.htm
Привет, Гость.
Предлагаем пройти революционный курс по гитаре.
Подарок от PrimaNota.Ru, забирай!