PrimaNota.ru - самый крупный в мире бесплатный архив песенных текстов, аккордов, табулатур и нот


Kiss - Get All You Can Take - текст песни, таба, бас-таба, видео

Регистрация Запомнить меня
Войти через:  Facebook Google Twitter Vk Yandex Mail.ru

Kiss - Get All You Can Take - текст песни, таба, бас-таба, видео

Печатать
Просмотров: 165
Авторы: Mitch Weissman, Paul Stanley

GET ALL YOU CAN TAKE (from the KISS CD "ANIMALIZE")
--------------------

Transcribed by Emil Ortenmark, emil@kissasylum.com

Tuned down 1/2-step

Comments: I like it when Paul plays riffs like these. Rhy. Fig 1 here is
in the same mold as Keep me comin' (and the open-string pull-off would
continue on Asylum). And in Rhy. Fig 3 we see the first appearance of
the Gmaj(7) chord that would later fuel such songs as Hide your heart
and Psycho Circus.


Key:
/    = slide up
\    = slide down
b    = bend (whole step)
b^   = bend (1/2 step)
b^^  = bend (1 1/2 steps)
pb   = pre-bend
r    = release-bend
t    = tap with righthand finger
h    = hammer-on
p    = pull-off
~    = Vibrato
*    = Natural Harmonic
#(#) = Trill
**   = Artificial Harmonic
x    = Dead notes (no pitch)
P.M. = Palm mute (- -> underneath indicates which notes)
(\)  = Dive w\bar
(/)  = Release w\bar
Tp   = Tap w\plectrum



Rhythm Fig. 1

Eb|--------------------------------------------------------|
Bb|--------------------------------------------------------|
Gb|--7/9-9-9-9\----7--7-7--9-------------------------------|
Db|--7/9-9-9-9\----7--7-7--9------------------5~--4--------|
Ab|--5/7-7-7-7\----5--5-5--7---4p0--5p0--7p0--------7-5----|
Eb|--------------------------------------------------------|



End 1

Eb|--------------------------------------------------------|
Bb|--------------------------------------------------------|
Gb|--7/9-9-9-9\----7--7-7--9----------------------2--------|
Db|--7/9-9-9-9\----7--7-7--9----------------------2--------|
Ab|--5/7-7-7-7\----5--5-5--7---4p0--5p0--7p0------0--------|
Eb|-------------------------------------------2b-----------|



End 2

Eb|--------------------------------------------------------|
Bb|-----------------------------------------------3--------|
Gb|--7/9-9-9-9\----7--7-7--9----------------------2--------|
Db|--7/9-9-9-9\----7--7-7--9----------------------0--------|
Ab|--5/7-7-7-7\----5--5-5--7---4p0--5p0--7p0---------------|
Eb|-------------------------------------------2b-----------|



Rhythm Fig. 2

Eb|--------------------------------------------------------|
Bb|-------------------------3------------------------------|
Gb|---2p0-0-2----2p0-0-2--x-2---2p0-0-2----2p0-------------|
Db|---2p0-0-2----2p0-0-2--x-0---2p0-0-2----2p0-------------|
Ab|---0----------0--------------0--------------------------|
Eb|--------------------------------------------0h2b--------|



End 1

Eb|--------------------------------------------------------|
Bb|-------------------------3------------------------------|
Gb|---2p0-0-2----2p0-0-2--x-2---2p0-0-2--------x-2---------|
Db|---2p0-0-2----2p0-0-2--x-0---2p0-0-2--------x-2---------|
Ab|---0----------0--------------0--------------x-0---------|
Eb|--------------------------------------------------------|



End 2

Eb|--------------------------------------------------------|
Bb|-------------------------3------------------------------|
Gb|---2p0-0-2----2p0-0-2--x-2---2p0-0-2--------------------|
Db|---2p0-0-2----2p0-0-2--x-0---2p0-0-2--------------------|
Ab|---0----------0--------------0-----0--------------------|
Eb|--------------------------------------------------------|



Rhythm Fig. 3 (Let ring)

Eb|--------------------------------------------------------|
Bb|-------------------------------------------3------------|
Gb|--------4-----------4-----------4-----2----2------------|
Db|-----4-----4-----4-----4-----4-----4--2----0------------|
Ab|--2-----------------------------------0-----------------|
Eb|--------------2-----------3-----------------------------|



End 1

Eb|--------------------------------------------------------|
Bb|----------------------------------------3---------------|
Gb|--------4-----------4-----------4-----x-2---x-2---------|
Db|-----4-----4-----4-----4-----4-----4--x-0---x-2---------|
Ab|--2-------------------------------------------0---------|
Eb|--------------2-----------3-----------------------------|



End 2

Eb|--------------------------------------------------------|
Bb|----------------------------------------------3---------|
Gb|--------4-----------4-----------4-----x-2---x-2---------|
Db|-----4-----4-----4-----4-----4-----4--x-2---x-0---------|
Ab|--2-------------------------------------0---------------|
Eb|--------------2-----------3-----------------------------|



Rhythm Fig. 4a

Eb|--------------------------------------------------------|
Bb|--------------------------------------------------------|
Gb|---5\4-0-2p0-0-5\4-0-7~------5\4-0-2p0-0-5\4-0-5~-------|
Db|---5\4-0-2p0-0-5\4-0-7~------5\4-0-2p0-0-5\4-0-5~-------|
Ab|--------------------------------------------------------|
Eb|--------------------------------------------------------|



Rhythm Fig. 4b

Eb|--------------------------------------------------------|
Bb|--------------------------------------------------------|
Gb|---5\4-0-2p0-0-5\4-0-7~------5\4-0h2----5\4-0h2---------|
Db|---5\4-0-2p0-0-5\4-0-7~------5\4-0h2----5\4-0h2---------|
Ab|--------------------------------------------------------|
Eb|--------------------------------------------------------|



Rhythm Fig. 5a (Let ring)

Eb|--------------------------------------------------------|
Bb|-------9-------10-----9----------12---------13------12--|
Gb|----------9--9------9----------------12--12------12-----|
Db|--------------------------------------------------------|
Ab|---------------------------10---------------------------|
Eb|--0-----------------------------------------------------|
    < - - - - - 4x - - - - >  < - - - - - - 4x - - - - - >


Eb|--------------------------------------------------------|
Bb|--------15---------16------15---------------------------|
Gb|------------15--15------15-------3----3----x-5---x-7----|
Db|---------------------------------3----3----x-5---x-7----|
Ab|--13-----------------------------1----1------3-----5----|
Eb|--------------------------------------------------------|
    < - - - - - - 3x - - - - - >


Rhythm Fig. 5b

Eb|--------------------------------------------------------|
Bb|---------------------------3----------------------------|
Gb|--9------------------------0----------------------------|
Db|--9------------------------0----------------------------|
Ab|--7-----------------------------------------------------|
Eb|--0------------------------3----------------------------|
   < 4x >                  < 4x >


Eb|--------------------------------------------------------|
Bb|--------------------------------------------------------|
Gb|--3-------------------------------3----3----x-5---x-7---|
Db|--3-------------------------------3----3----x-5---x-7---|
Ab|--1-------------------------------1----1------3-----5---|
Eb|--------------------------------------------------------|
   < 3x >




Solo

Eb|-------12-------12--------------------------------------|
Bb|--12------15p12------15(12)----------15p12h15~----15p12-|
Gb|--14b---------------------------------------------------|
Db|--------------------------------------------------------|
Ab|--------------------------------------------------------|
Eb|--------------------------------------------------------|
   < - - - 4x - - - >    Lower whammy



Eb|--------------------------------------------------------|
Bb|--------------------------------------------------------|
Gb|--14b~-----r14-12h14p(\/)12---12h14h(\/)12---p0(\)------|
Db|--------------------------------------------------------|
Ab|--------------------------------------------------------|
Eb|--------------------------------------------------------|




Eb|-------------------------------------6p3---3------------|
Bb|--15**-----------------------------------6---6-3h6p3----|
Gb|----------(/)14p12h(\/)14p12-------------------------5--|
Db|--------------------------------------------------------|
Ab|--------------------------------------------------------|
Eb|--------------------------------------------------------|




Eb|--------------------------------------------------------|
Bb|--6p3---3-----------------------------------------------|
Gb|------5---5-3h5p3---5p3---3------5* (\/)-(\/)----5p3p0--|
Db|------------------5-----5---5p3-------------------------|
Ab|--------------------------------------------------------|
Eb|--------------------------------------------------------|




Eb|-----------------------------------------------6---8/---|
Bb|-----------------------------------------3h6/8----------|
Gb|--5p3p0----------------------------0h3h5----------------|
Db|--------5p3p0-5p3p0(\)---0h3p0-3h5----------------------|
Ab|--------------------------------------------------------|
Eb|--------------------------------------------------------|




Eb|--13~---------------------------------------------------|
Bb|---------11h13p(\/)11-13p(\/)11-(\/)---\----------------|
Gb|-----------------------------------------3(\)-----------|
Db|--------------------------------------------------------|
Ab|--------------------------------------------------------|
Eb|--------------------------------------------------------|




Eb|-------------13/-16-------------------------------------|
Bb|---------15---------------------------------------------|
Gb|--(/)15--------------pb^13----r13-----------------------|
Db|---------------------------------------------10h11h13---|
Ab|-------------------------------------10h11h13-----------|
Eb|--------------------------------------------------------|




Eb|--------------------------------------------------------|
Bb|-----------10/16---14--13-------------------------------|
Gb|--10h11h13-----------------15~---------------------6-8--|
Db|--------------------------------------6-8-6-8~----------|
Ab|--------------------------------------------------------|
Eb|--------------------------------------------------------|




Eb|-------------------------(6)-----------16b--16--16b--16-|
Bb|------------6-9-6-9~------------------------------------|
Gb|--6-8~--------------------------------------------------|
Db|--------------------------------8\----------------------|
Ab|--------------------------------------------------------|
Eb|--------------------------------------------------------|




Eb|--16b~----18b----r18------------------------------------|
Bb|----------------------18~-------------------------------|
Gb|--------------------------------------------------------|
Db|--------------------------------------------------------|
Ab|--------------------------------------------------------|
Eb|--------------------------------------------------------|




Outro solo

Eb|--------------------------------------------------------|
Bb|--------------------------------------------------------|
Gb|--5p2p0-2p0-5**b----------------------------------------|
Db|--------------------------------------------------------|
Ab|--------------------------------------------------------|
Eb|--------------------------------------------------------|




Eb|--------------------------------------------------------|
Bb|--15b--15--13--15--13b---r13-(\)--------------13--15----|
Gb|------------------------------------------14------------|
Db|--------------------------------------------------------|
Ab|--------------------------------------------------------|
Eb|--------------------------------------------------------|




Eb|--------------------------------------------------------|
Bb|--13h15-13h15-13h15-----------13--15--13h15-13h15--13~--|
Gb|--14----14----14----14~---14----------14----14----------|
Db|--------------------------------------------------------|
Ab|--------------------------------------------------------|
Eb|--------------------------------------------------------|
     Semi-harmonics - >



Eb|--20b---17-20p17----20b---17-20p17----20b---17-20p17----|
Bb|-----------------20----------------20-------------------|
Gb|--------------------------------------------------------|
Db|--------------------------------------------------------|
Ab|--------------------------------------------------------|
Eb|--------------------------------------------------------|




Eb|--------------------------------------------------------|
Bb|--20b~------20b-r20p17-20b--\---------------------------|
Gb|--------------------------------------------------------|
Db|--------------------------------------------------------|
Ab|--------------------------------------------------------|
Eb|--------------------------------------------------------|
Добавлено: 14.09.2013
Другие материалы по этой песне:

Страница создана 12.05.2012
http://primanota.ru/kiss/get-all-you-can-take-chords.htm
Привет, Гость.
Предлагаем пройти революционный курс по гитаре.
Подарок от PrimaNota.Ru, забирай!