PrimaNota.ru - самый крупный в мире бесплатный архив песенных текстов, аккордов, табулатур и нот


Kiss - Flaming Youth - текст песни, таба, бас-таба, видео

Регистрация Запомнить меня
Войти через:  Facebook Google Twitter Vk Yandex Mail.ru

Kiss - Flaming Youth - текст песни, таба, бас-таба, видео

Печатать
Просмотров: 150
Уроки эстрадного вокала в Санкт-Петербурге
Авторы: Ace Frehley, Gene Simmons, Paul Stanley, Bob Ezrin

Flaming Youth by KISS
From the album Destroyer
Transcriber: Unknown
--------------------------------------------------------------------



  intro  repeat for verses
e:-------3~---3--3--3-----------|
B:-------3~---3--3--3-----------|
G:--2~---0~---2--0--2------2-2--|
D:--2~---0~---0--0--0------2-2--|
A:--0~---x----x--x--x--x-x-0-0--|
E:-------3~---2--3--2-----------|




   "How flamin'.."
e:--3-3--2----3-3--2----------------3-3--2----3-3--2-------------------------|
B:--3-3--3----3-3--3--------3--2----3-3--3----3-3--3-------------------------|
G:--2-2--2----2-2--2-----2----------2-2--2----2-2--2------------------------2|
D:--0-0--0----0-0--0-------2--2-----0-0--0----0-0--0-------------------------|
A:----------------------0----------------------------------------------3-4---|
E:-----------------------------------------------------0-3b~---0--3-4--------|


                             
                             

e:--------------------------|
B:--------------------------|
G:~---------------------2~--|
D:---4-2--------------------|
A:------------------3-4-----|
E:-------3b--0--3-4---------|




  solo
e:---------------------------------------------------------------------------|
B:---------------8-8---------8----------------------8------------------------|
G:--7b~~~----5/9-----9--9-9-9---9-9-9/7---9-9--9-9-9---9-9-9/7---7/9-9-9/7--7|
D:-------------------------------------9----------------------9-----------9--|
A:---------------------------------------------------------------------------|
E:---------------------------------------------------------------------------|





e:---10b-10b-10b-------------------------------------------------------------|
B:---------------11b-11b/11-11b-11-11b/11-11b/11--10-8/10/8/10/8/10/8/10--8/10
G:-9-------------------------------------------------------------------------|
D:---------------------------------------------------------------------------|
A:---------------------------------------------------------------------------|
E:---------------------------------------------------------------------------|





e:-10-------10-------10-------10-------10------------------------------------|
B:----10b/10---10b/10---10b/10---10b/10---10b/10------8~--7~--5~--3~--2-0----|
G:-----------------------------------------------9-7----------------------2~~|
D:---------------------------------------------------------------------------|
A:---------------------------------------------------------------------------|
E:---------------------------------------------------------------------------|


                                                       

    outtro fills
e:-|-----------------------------------15--15--15--15~-|
B:-|--5~--------10---8----7---5--------18b-18b-18b-18b~|
G:-|--7b~-------12b--10b--9b--7b-----------------------|
D:-|---------------------------------------------------|
A:-|---------------------------------------------------|
E:-|---------------------------------------------------|
Добавлено: 03.10.2013
Другие материалы по этой песне:

Страница создана 24.03.2012
http://primanota.ru/kiss/flaming-youth-chords.htm
Привет, Гость.
Предлагаем пройти революционный курс по гитаре.
Подарок от PrimaNota.Ru, забирай!