PrimaNota.ru - самый крупный в мире бесплатный архив песенных текстов, аккордов, табулатур и нот


Kiss - Down On Your Knees - текст песни, таба, видео

Регистрация Запомнить меня
Войти через:  Facebook Google Twitter Vk Yandex Mail.ru

Kiss - Down On Your Knees - текст песни, таба, видео

Печатать
Просмотров: 106
Авторы: Bryan Adams, Mikel Japp, Paul Stanley

DOWN ON YOUR KNEES (from the KISS album "KILLERS")
--------------------

Transcribed by Emil Ortenmark, emil@kissasylum.com

Standard tuning


Key:
/    = slide up
\    = slide down
b    = bend (whole step)
b^   = bend (1/2 step)
b^^  = bend (1 1/2 steps)
pb   = pre-bend
r    = release-bend
t    = tap with righthand finger
h    = hammer-on
p    = pull-off
~    = Vibrato
*    = Natural Harmonic
#(#) = Trill
**   = Artificial Harmonic
x    = Dead notes (no pitch)
P.M. = Palm mute (- -> underneath indicates which notes)
(\)  = Dive w\bar
(/)  = Release w\bar
Tp   = Tap w\plectrum




Rhythm Fig. 1

E|------------------------------------------|
B|--------------------------3--------3------|
G|--2--2----x--2--2----2----0--------2------|
D|--2--2----x--2--2----2----0--------0------|
A|--0--0----x--0--0----0----x---------------|
E|--------------------------3---------------|



E|------------------------------------------|
B|--------------------------3---------------|
G|--2--2----x--2--2----2----0--------1------|
D|--2--2----x--2--2----2----0--------2------|
A|--0--0----x--0--0----0----x--------2------|
E|--------------------------3--------0------|


Rhythm Fig. 2

E|------------------------------------------|
B|--3--------3------------------------------|
G|--2--------0------2---------------2-------|
D|--0--------x------2---------------2-------|
A|-----------3------0------------0----------|
E|-----------------------0--3~--------------|



E|------------------------------------------|
B|--3--------3------------------------------|
G|--2--------0------2-----------------------|
D|--0--------x------2-----------------------|
A|-----------3------0----0-----0--3~-0------|
E|--------------------------3~--------------|



E|------------------------------------------|
B|--3--------3------------------------------|
G|--2--------0------2---------------2-------|
D|--0--------x------2---------------2-------|
A|-----------3------0------------0-------2--|
E|-----------------------0--3~-----------0--|



E|------------------------------------------|
B|------------------------------------------|
G|------------------------------------------|
D|------------------------------------------|
A|------------------0--3--2--0--2--3--2-----|
E|--0--2~---3~---4--------------------------|



Rhythm Fig. 3

E|------------------------------------------|
B|-------------------------3-------3--------|
G|-2--2----x--2--2----2----0-------2--------|
D|-2--2----x--2--2----2----0-------0----2-2-|
A|-0--0----x--0--0----0----x------------2-2-|
E|-------------------------3------------0-0-|




Rhythm Fig. 4

E|------------------------------------------|
B|--------------------------3-------3-------|
G|--2--2----x--2--2----2----0-------2-------|
D|--2--2----x--2--2----2----0-------0----2--|
A|--0--0----x--0--0----0----x------------2--|
E|--------------------------3------------0--|



E|------------------------------------------|
B|------------------------------------------|
G|------------------------------------------|
D|--2---------------------------------------|
A|--2---------------------------------------|
E|--0------0--2~---3~-----------------------|




Rhythm Fig. 5

E|------------------------------------------|
B|--------------------------3--------3------|
G|----------x--2--2----2----0--------2------|
D|----------x--2--2----2----0--------0------|
A|-----0----x--0--0----0----x---------------|
E|--4-----------------------3---------------|



E|------------------------------------------|
B|--------------------------3---------------|
G|--2--2----x--2--2----2----0--------1------|
D|--2--2----x--2--2----2----0--------2------|
A|--0--0----x--0--0----0----x--------2------|
E|--------------------------3--------0------|




Rhythm Fig. 6

E|------------------------------------------|
B|----------------3--3----------3----3------|
G|--2--2----------2--2----------0----2------|
D|--2--2----------0--0----------x----0------|
A|--0--0------------------------3-----------|
E|------------------------------------------|



E|------------------------------------------|
B|------------------------------------------|
G|--2--2------------------------------------|
D|--2--2------------------------------------|
A|--0--0------------2--------------------0--|
E|------------------0----0--2~---3~---4-----|



E|------------------------------------------|
B|------------------------------------------|
G|------------------------------------------|
D|------------------------------------------|
A|--3--2--0--2--3--2------------------------|
E|------------------------------------------|




Rhythm Fig. 7

E|------------------------------------------|
B|--------------------------3--------3------|
G|--2--2----x--2--2----2----0--------2------|
D|--2--2----x--2--2----2----0--------0------|
A|--0--0----x--0--0----0----x---------------|
E|--------------------------3---------------|



E|------------------------------------------|
B|------------------------------------------|
G|------------------------------------------|
D|------------------------------------------|
A|--2---------------------------------------|
E|--0----0--2~---3~-------------------------|




Solo

E|-------------------------------------17~--|
B|--20b--20b~---20b--20b~--------20b--------|
G|------------------------------------------|
D|------------------------------------------|
A|------------------------------------------|
E|------------------------------------------|



E|-------------20b~-------------------------|
B|--20b-r20-17----------------20b---20b-----|
G|------------------------------------------|
D|------------------------------------------|
A|------------------------------------------|
E|------------------------------------------|



E|-------------------------22b--22--20--22--|
B|--20b-r20p17-20-20b~----------------------|
G|------------------------------------------|
D|------------------------------------------|
A|------------------------------------------|
E|------------------------------------------|



E|--22b--22--22b~---------------------------|
B|------------------------------------------|
G|------------------------------------------|
D|------------------------------------------|
A|------------------------------------------|
E|------------------------------------------|
Добавлено: 06.06.2013
Другие материалы по этой песне:

Страница создана 15.04.2012
http://primanota.ru/kiss/down-on-your-knees-chords.htm
Привет, Гость.
Предлагаем пройти революционный курс по гитаре.
Подарок от PrimaNota.Ru, забирай!