PrimaNota.ru - самый крупный в мире бесплатный архив песенных текстов, аккордов, табулатур и нот


Kiss - Detroit Rock City Live - таба, видео

Регистрация Запомнить меня
Войти через:  Facebook Google Twitter Vk Yandex Mail.ru

Kiss - Detroit Rock City Live - таба, видео

Печатать
Просмотров: 227
-------------------------------------------------------------------------------
                        DETROIT ROCK CITY - Kiss
-------------------------------------------------------------------------------
Tabbed by: Brendan Wren

This is Kiss' Detroit Rock City, as played Live on the album Alive III with Bruce 
Kulick and Eric Singer.

Tuning: Half-Step Down (Eb, Ab, Db, Gb, Bb, Eb)

Instruments: Guitar 1 (Lead, Distorted)
             Guitar 2 (Rhythm, Distorted)

Legend:

************************************

| /   slide up
| \   slide down
| h   hammer-on
| p   pull-off
| ~   vibrato
| +   harmonic
| x   Mute note
| b   Bend
| pb  Pre-bend
| br  Bend release
| pbr Pre-bend release
| brb Bend release bend
| /// Continuous Strumming

************************************

Intro:

Guitar 1:
e|----------------------------------|---------------------------------------|
B|----------------------------------|---------------------------------------|
G|----------------------------------|---------------------------------------|
D|----------------------------------|---------------------------------------|
A|--4-2-4-2-4-2-4-2-4-2-4-2-4-2-4-2-|-4-2-4-2-4-2-4-2--444-444-4------------|
E|----------------------------------|---------------------------------------|

Guitar 2:
e|----------------------------------|---------------------------------------|
B|----------------------------------|---------------------------------------|
G|----------------------------------|---------------------------------------|
D|----------------------------------|-6-4-6-4-6-4-6-4--666-666-6------------|
A|----------------------------------|---------------------------------------|
E|----------------------------------|---------------------------------------|

Both Guitars:
e|------------------------------|
B|------------------------------|
G|-----2---------------4--------|
D|-----2---------------4--------|
A|-----0---------------2--------|
E|--0---------------0-----------|


Verse: 

Both Guitars:
   
     1 & 2 & 3 & 4 &   1 & 2 & 3 & 4 &   1 & 2 & 3 & 4 &    1 & 2 & 3 & 4     
e|------------------|------------------|------------------|------------------|
B|------------------|------------------|------------------|------------------|
G|------------------|------------------|--9---------------|---------11-------|
D|--11--------------|------------------|--9---------------|--9------11-------|
A|--11--------------|------------------|--7---------------|--9------9--------|
E|--9---------------|------------------|--0---------------|--7---------------|
   
     1 & 2 & 3 & 4 &   1 & 2 & 3 & 4 &   1 & 2 & 3 & 4 &    1 & 2 & 3 & 4     
e|------------------|------------------|------------------|------------------|
B|------------------|------------------|------------------|------------------|
G|------------------|------------------|--9---------------|---------11-------|
D|--11--------------|------------------|--9---------------|-9-------11-------|
A|--11--------------|------------------|--7---------------|-9-------9--------|
E|--9---------------|------------------|--0---------------|-7----------------|


Chorus:

Both Guitars:

    1 & 2 & 3 & 4 &    1 & 2 & 3 & 4 
e|------------------|------------------|
B|------------------|------------------|
G|---2--------------|---4--------------|
D|---2--------------|---4--------------|
A|---0--------------|---2--------------|
E|-0----------------|-0----------------|

Guitar 1:
 
   1 & 2 & 3 & 4       1 &  2 &  3 &  4
e|------------------|---------------------|
B|------------------|---------------------|
G|------------------|---------------------|
D|------------------|--------2--------2---|
A|--4--4-2---2-4----|--4-2-4---4----2---4-|
E|---------4--------|-------------4-------|

Guitar 2:

    1   &   2   &  3   &   4  &        1  &   2  &     3  &  4  
e|----------------------------------|----------------------------------------|
B|----------------------------------|----------------------------------------|
G|----------------------------------|----------------------------------------|
D|----------------------------------|----------------------------------------|
A|--4-2-4-2-4-2-4-2-4-2-4-2-4-2-4-2-|--4-2-4-2-4-2-4-2--444-444-4------------|
E|----------------------------------|----------------------------------------|

Both guitars

     1 & 2 & 3 & 4 &    1 & 2 & 3 & 4 & 
e|------------------|------------------|
B|------------------|------------------|
G|----2-------------|----4-------------|
D|----2-------------|----4-------------|
A|----0-------------|----2-------------|
E|--0---------------|--0---------------|


Verse 2: 

Both Guitars:
   
     1 & 2 & 3 & 4 &   1 & 2 & 3 & 4 &   1 & 2 & 3 & 4 &    1 & 2 & 3 & 4     
e|------------------|------------------|------------------|------------------|
B|------------------|------------------|------------------|------------------|
G|------------------|------------------|--9---------------|---------11-------|
D|--11--------------|------------------|--9---------------|--9------11-------|
A|--11--------------|------------------|--7---------------|--9------9--------|
E|--9---------------|------------------|--0---------------|--7---------------|
   
     1 & 2 & 3 & 4 &   1 & 2 & 3 & 4 &   1 & 2 & 3 & 4 &    1 & 2 & 3 & 4     
e|------------------|------------------|------------------|------------------|
B|------------------|------------------|------------------|------------------|
G|------------------|------------------|--9---------------|---------11-------|
D|--11--------------|------------------|--9---------------|-9-------11-------|
A|--11--------------|------------------|--7---------------|-9-------9--------|
E|--9---------------|------------------|--0---------------|-7----------------|


Chorus 2:

Both Guitars:

    1 & 2 & 3 & 4 &    1 & 2 & 3 & 4 
e|------------------|------------------|
B|------------------|------------------|
G|---2--------------|---4--------------|
D|---2--------------|---4--------------|
A|---0--------------|---2--------------|
E|-0----------------|-0----------------|

Bridge:

Guitar 1:

   
e|---------------------------------------------------------------------------------|
B|---------------------------------------------------------------------------------|
G|------------------------------------------------------------------666-6p4--------|
D|-------------------------2-------2--------------------------2-------------6------|
A|--4--4-2---2-4-----4-2-4---4---2---4---4--4-2---2-4---4-2-4---4------------------|
E|---------4-------------------4----------------4----------------------------------|

Guitar 2:
e|---------------------------------------------------------------------------------|
B|---------------------------------------------------------------------------------|
G|---------------------------------------------------------------------------------|
D|---------------------------------------------------------------------------------|
A|---------------------------------------------------------------------------------|
E|---------------------------------------------------------------------------------|

Guitar 1:

e|---------------------------------------------------------------------------------|
B|---------------------------------------------------------------------------------|
G|---------------------------------------------------------------------------------|
D|-------------------------2-------2----------------------------2------------------|
A|--4--4-2---2-4-----4-2-4---4---2---4---4--4-2---2-4-----4-2-4---4----------------|
E|---------4-------------------4----------------4----------------------------------|

Guitar 2:

e|---------------------------------------------------------------------------------|
B|---------------------------------------------------------------------------------|
G|---------------------------------------------------------------------------------|
D|------------------------2-------2---------------------------2--------------------|
A|--4--4-2---2-4----4-2-4---4---2---4---4--4-2---2-4----4-2-4---4------------------|
E|---------4------------------4----------------4-----------------------------------|

Guitar 1: 

e|---------------------------------------------------------------------------------|
B|---------------------------------------------------------------------------------|
G|---------------------------------------------------------------------------------|
D|------------------------4-------4-----------4-------2----------------------------|
A|--6--6-4---4-6----6-4-6---6---4---6---6-4-6---6---2---4--------------------------|
E|---------6------------------6-------------------4--------------------------------|

Guitar 2: 

e|---------------------------------------------------------------------------------|
B|---------------------------------------------------------------------------------|
G|---------------------------------------------------------------------------------|
D|------------------------4-------4-----------4-------2----------------------------|
A|--6--6-4---4-6----6-4-6---6---4---6---6-4-6---6---2---4--------------------------|
E|---------6------------------6-------------------4--------------------------------|

Both Guitars:

    1 & 2 & 3 & 4 &    1 & 2 & 3 & 4 
e|------------------|------------------|
B|------------------|------------------|
G|---2--------------|---4--------------|
D|---2--------------|---4--------------|
A|---0--------------|---2--------------|
E|-0----------------|-0----------------|

Verse 3:

Both Guitars:
   
     1 & 2 & 3 & 4 &   1 & 2 & 3 & 4 &   1 & 2 & 3 & 4 &    1 & 2 & 3 & 4     
e|------------------|------------------|------------------|------------------|
B|------------------|------------------|------------------|------------------|
G|------------------|------------------|--9---------------|---------11-------|
D|--11--------------|------------------|--9---------------|--9------11-------|
A|--11--------------|------------------|--7---------------|--9------9--------|
E|--9---------------|------------------|--0---------------|--7---------------|
   
     1 & 2 & 3 & 4 &   1 & 2 & 3 & 4 &   1 & 2 & 3 & 4 &    1 & 2 & 3 & 4     
e|------------------|------------------|------------------|------------------|
B|------------------|------------------|------------------|------------------|
G|------------------|------------------|--9---------------|---------11-------|
D|--11--------------|------------------|--9---------------|-9-------11-------|
A|--11--------------|------------------|--7---------------|-9-------9--------|
E|--9---------------|------------------|--0---------------|-7----------------|


Chorus 3:

Both Guitars:

    1 & 2 & 3 & 4 &    1 & 2 & 3 & 4      1 & 2 & 3 & 4
e|------------------|------------------|------------------|
B|------------------|------------------|------------------|
G|---2--------------|---4--------------|---6--------------|
D|---2--------------|---4--------------|---6--------------|
A|---0--------------|---2--------------|---4--------------|
E|-0----------------|-0----------------|-0----------------|

Drum Solo:

Both Guitars:
 
   1 & 2 & 3 & 4  &  1 & 2 & 3 & 4  &  1 & 2 & 3 & 4  &  1 & 2 & 3 & 4
e|--------------------------------------------------------------------------|
B|--------------------------------------------------------------------------|
G|------------------------------------------------------------------------8-|
D|--------------------------------------------------------------------6-9---|
A|--------------------------------------------------------------------------|
E|--------------------------------------------------------------------------|

Guitar 1: 

e|------------------------------------------------------------------|
B|------------------------------------------------------------------|
G|-6~--9-8-6-9-8-6-------8-9-8----------6-4---6-4------------8-6~---|
D|-----------------9~--9-------9/7-6-7~-----7-----7\6~---6-9--------|
A|------------------------------------------------------------------|
E|------------------------------------------------------------------|

Guitar 2: 
e|------------------------------------------------------------------|
B|------------------------------------------------------------7-----|
G|----------------------------------------------------------8---9~--|
D|--------------------------------------------------------9---------|
A|------------------------------------------------------------------|
E|------------------------------------------------------------------|

Guitar 1:
e|------------------------------------------------------------------|
B|------------------------------------------------------------------|
G|-9-8-6-9-8-6-------8-9-8-------------/5~-/6~--666-666-6----6~-----|
D|-------------9~--9-------9\7-6-7~--6~--------------------6--------|
A|------------------------------------------------------------------|
E|------------------------------------------------------------------|

Guitar 2:
e|------------------------------------------------------------------|
B|-9-7---9\7---------7-9-7--------------/4-------------------5~-----|
G|-----9-----9-8~--8-------8/6-5-6~--/5----/6~--666-666-6--6--------|
D|------------------------------------------------------------------|
A|------------------------------------------------------------------|
E|------------------------------------------------------------------|

Guitar 1:
e|-------------------------------------------------9----------------|
B|-----------------------------5-----------------9---9h10p9p7-------|
G|-9-8-6-9/8-6-------8-9-8-6/4---6~--9-8-6---/6~--------------9-8-6-|
D|-------------9~--9-----------------------9------------------------|
A|------------------------------------------------------------------|
E|------------------------------------------------------------------|

Guitar 2:
e|----------------------------------------------------7h9p7-5-------|
B|-9-7---9/7---------7-9-7-----9-----9-7------------9---------9-7-5~|
G|-----9-----9-8~--8-------9/8---9~------8-8/9~---9-----------------|
D|------------------------------------------------------------------|
A|------------------------------------------------------------------|
E|------------------------------------------------------------------|

Guitar 1:
e|------------------------------------------------------------------|
B|------------------------------------------------------------------|
G|--9-8-6-9-8-6-----8-9-8-6---/9------------------------------------|
D|--------------9~----------9---------------------------------------|
A|------------------------------------------------------------------|
E|------------------------------------------------------------------|

Guitar 2:
e|------------------------------------------------------------------|
B|--9-7---9/7-------7-9-7-----/9------------------------------------|
G|------9-----9-8~--------9-8---------------------------------------|
D|------------------------------------------------------------------|
A|------------------------------------------------------------------|
E|------------------------------------------------------------------|

Verse 4:

Both Guitars:
   
     1 & 2 & 3 & 4 &   1 & 2 & 3 & 4 &   1 & 2 & 3 & 4 &    1 & 2 & 3 & 4     
e|------------------|------------------|------------------|------------------|
B|------------------|------------------|------------------|------------------|
G|------------------|------------------|--9---------------|---------11-------|
D|--11--------------|------------------|--9---------------|--9------11-------|
A|--11--------------|------------------|--7---------------|--9------9--------|
E|--9---------------|------------------|--0---------------|--7---------------|
   
     1 & 2 & 3 & 4 &   1 & 2 & 3 & 4 &   1 & 2 & 3 & 4 &    1 & 2 & 3 & 4     
e|------------------|------------------|------------------|------------------|
B|------------------|------------------|------------------|------------------|
G|------------------|------------------|--9---------------|---------11-------|
D|--11--------------|------------------|--9---------------|-9-------11-------|
A|--11--------------|------------------|--7---------------|-9-------9--------|
E|--9---------------|------------------|--0---------------|-7----------------|



Chorus 4:

Guitar 2:

    1 & 2 & 3 & 4 &    1 & 2 & 3 & 4      1 & 2 & 3 & 4
e|------------------|------------------|------------------|
B|------------------|------------------|------------------|
G|---2--------------|---4--------------|---6--------------|
D|---2--------------|---4--------------|---6--------------|
A|---0--------------|---2--------------|---4--------------|
E|-0----------------|-0----------------|-0----------------|

Guitar 1:
e|------------------|------------------|-------------------|
B|------------------|------------------|-------------------|
G|------9-8-6-8/9~--|--------8-9-8-6---|--6~---------------|
D|------------------|----------------9-|-------------------|
A|------------------|------------------|-------------------|
E|------------------|------------------|-------------------|


Outro: 

e|------------------|------------------|------------------------------------|
B|------------------|------------------|------------------------------------|
G|---2///-----------|---4///-----------|---/6--4h6-4h6-4h6-4h6--6///-----6--|
D|---2///-----------|---4///-----------|---/6--4h6-4h6-4h6-4h6--6///-----6--|
A|---0///-----------|---2///-----------|---/4--2h4-2h4-2h4-2h4--4///-----4--|
E|-0----------------|-0----------------|------------------------------------|
Добавлено: 16.05.2012
Другие материалы по этой песне:
  • Аккорды и текст

Страница создана 16.05.2012
http://primanota.ru/kiss/detroit-rock-city-live-chords.htm
Привет, Гость.
Предлагаем пройти революционный курс по гитаре.
Подарок от PrimaNota.Ru, забирай!