PrimaNota.ru - самый крупный в мире бесплатный архив песенных текстов, аккордов, табулатур и нот


Kiss My Jazz - A Greater Loss Than Pain - таба, видео

Регистрация Запомнить меня
Войти через:  Facebook Google Twitter Vk Yandex Mail.ru

Kiss My Jazz - A Greater Loss Than Pain - таба, видео

Печатать
Просмотров: 74
A Greater Loss Than Pain

tab by Avi

Verse - 
   Ebm   Dm     Bb    Bb
e|--6--|--5--|--6--|--6--|
B|--7--|--6--|--6--|--6--|
G|--8--|--7--|--7--|--7--|
D|--8--|--7--|--8--|--8--|
A|--6--|--5--|--8--|--8--|
E|-----|-----|--6--|--6--|

Chorus - 
    _______
   /3 times\
  /         \
 / Ebm    Fm \   Bb
e|--6--|--8---|--6--|
B|--7--|--9---|--6--|
G|--8--|--10--|--7--|
D|--8--|--10--|--8--|
A|--6--|--8---|--8--|
E|-----|------|--6--|

First Verse Lead guitar parts - 
e|-----------|------------------------|--------------|
B|-----------|------------------------|--------------|
G|-----------|-----6-8-8/10-11-8/10-8-|--------------|
D|-6h8-8/9/8-|-6h8--------------------|-----6-8/11-8-|
A|-----------|------------------------|---8----------|
E|-----------|------------------------|-6------------|

e|------9-----7/5------------|-------|
B|-9h11---9/7-----7-9-7-9/11-|-------|
G|---------------------------|-------|
D|---------------------------|-8-8-8-|
A|---------------------------|-------|
E|---------------------------|-------|

Second Verse Lead guitar parts - 
e|-----------------|----------------|----------------|
B|-----------------|----------------|----------------|
G|-----6---6h8-----|-10-10-10-10-10-|-6-6/8-8-8-8/10-|
D|-6h8---8-----6h8-|----------------|----------------|
A|-----------------|----------------|----------------|
E|-----------------|----------------|----------------|

e|----------------------|---------------|
B|----------------------|---------------|
G|-10/8-8/6-6/5-5/6-----|---------------|
D|------------------6h8-|-8-8-8slideoff-|
A|----------------------|---------------|
E|----------------------|---------------|

Solo (kinda...) - 
   ________________________________
  /             twice              \
e|----------------------------------|
B|----------------------------------|
G|-----------------10-10-10---------|
D|---------10-10p8------------------|
A|-6-6-6-8------------------11-10-8-|
E|----------------------------------|

Outro - 
mainly this riff...
e|-11-11-11-11-11-11/-5-6-6p5-5-7-6-|
B|----------------------------------|
G|----------------------------------|
D|----------------------------------|
A|----------------------------------|
E|----------------------------------|

BEAUTIFUL.
     
Добавлено: 06.11.2013
Другие материалы по этой песне:
  • Аккорды и текст

Страница создана 06.11.2013
http://primanota.ru/kiss-my-jazz/a-greater-loss-than-pain-chords.htm
Привет, Гость.
Предлагаем пройти революционный курс по гитаре.
Подарок от PrimaNota.Ru, забирай!