PrimaNota.ru - самый крупный в мире бесплатный архив песенных текстов, аккордов, табулатур и нот


Kiske-somerville - If I Had A Wish - таба, видео

Регистрация Запомнить меня
Войти через:  Facebook Google Twitter Vk Yandex Mail.ru

Kiske-somerville - If I Had A Wish - таба, видео

Печатать
Просмотров: 141
1-------------------------------------------------------------------|
2-------------------------------------------------------------------|
3-/6-5-6-8-6----------5(6)(5)-----------6-8-------------------------|
4------------10--8-10---------6-8--8-10------10---------------------|
5-------------------------------------------------3-4-3-1-------3-1-|
6---------------------------------------------------------1-2-4-----|

1-------------------------------------------------------------------|
2-------------------------------------------------------------------|
3-/6-5-6-8-10-6-----------------------------------------------------|
4-----------------8-10--13-11------------11-10----------------------|
5------------------------------15-13-----------11-13----------------|
6------------------------------------14-----------------------------|

1--------------------------------------------------------------------|
2--------------------------------------------------------------------|
3--------------------------------------------------------------------|
4-------3---4---1---3-1-3---------3---4---1---3-1--------------3---4-|
5---1-1---1---1---1-------4-3-1-1---1---1---1-----4-3-----1-1----1---|
6------------------------------------------------------4-------------|

1-------------------------------------------------------------------|
2-------------------------------------------------------------------|
3-------------------------------------------------------------------|
4-----1----3--1-3-------------3---4-----3-3-------------------------|
5---1---1----------4-3---1-1----1---1---1-1-------------------------|
6-------------------------------------------------------------------|

La#
I throw away my sorrows
There was one more chance to escape
Do#                    re#       la#
To what they call the other side
La#
One more bad dream that I got
                           Do#
Is hard to walk this road alone
                 Fa#         sol#
With more fire burning inside
La
I'm not super-human
Si
I got a leak in my brain now
Do#                    si        sol#
And there everything will falls to pieces
La
As the blue sky turning black
Si                    sol#
And my mirror starts to crack
La#            do#        sol#
As far as the eye can see
        Fa#            la#
You mean so much to me
   Do#               sol#
If I had just one more wish
1---------------------|
2---------------------|
3---------------------|
4---------------------|
5---3-4-3-1-------3-1-|
6-----------1-2-4-----|
        La#            do#          sol#
And I don't know which way I should go
       Fa#      fa    fa#   sol#  la#
My Herat says yes my mind says no
1--------------------------------------------------------------------|
2--------------------------------------------------------------------|
3--------------------------------------------------------------------|
4-------3---4---1---3-1-3---------3---4---1---3-1--------------3---4-|
5---1-1---1---1---1-------4-3-1-1---1---1---1-----4-3-----1-1----1---|
6------------------------------------------------------4-------------|

1-------------------------------------------------------------------|
2-------------------------------------------------------------------|
3-------------------------------------------------------------------|
4-----1----3--1-3-------------3---4-----3-3-------------------------|
5---1---1----------4-3---1-1----1---1---1-1-------------------------|
6-------------------------------------------------------------------|

(repetimos secuencia de acordes anterior)
I saw the demons…
…one more wish
1---------------------|
2---------------------|
3---------------------|
4---------------------|
5---3-4-3-1-------3-1-|
6-----------1-2-4-----|
And i …
…says no
Solo (adaptado) de “if i had a wish”

1----------------------------------------------------------|
2----------------------------------------------------------|
3------17-19----19-22-20-17-----------17-19----19-22-------|
4---20-------20--------------20-19-20-------20-------------|
5----------------------------------------------------------|
6----------------------------------------------------------|

1-------------17--|
2---20-18-16------|
3-----------------|
4-----------------|
5-----------------|
6-----------------|

1---18-15-------13-15-13------------------------------------------|
2---------15-------------15---------------------------------------|
3------------15-------------15-------------------------15----15---|
4------------------------------17----------------15-------17---17-|
5---------------------------------17-15-13-15-17----17------------|
6-----------------------------------------------------------------|

1----------(AH)---------------------10-11-13-11-10----------|
2---15------13-------------------------------------13-11-10-|
3---------------15-17(19)-17-15-17--------------------------|
4-----------------------------------------------------------|
5-----------------------------------------------------------|
6-----------------------------------------------------------|

1----------------------------------------------|
2----8-10-11-10-8------------------------------|
3-----------------10-8-7---7-8-10-8-7----------|
4---------------------------------------10-8-7-|
5----------------------------------------------|
6----------------------------------------------|

1-------------------------------------------------------------------|
2-------------------------------------------------------------------|
3------------------------------------------(AH)---------------------|
4---5-7-8-7-5----------------3-5-7-5-3-------8------3---------------|
5--------------8-6-5---3-5-6-----------6-5-3----5-5---5-3-----------|
6---------------------------------------------------------6-5-6-5-3-|

1------------------------------------------------------------------|
2------------------------------------------------------------------|
3-----(AH)--------------------------5-7-8-7-5--------7-8-10-8-7----|
4------8-----3----------------5-7-8-----------7-8-10---------------|
5--------5-5---5-3-------------------------------------------------|
6---6---------------6-5-6-5-3--------------------------------------|

1------------------------------------------------------------------|
2----------------------10(12)(10)-8-10-----------------------------|
3---10(12)-8-7-----------------------------------------------------|
4--------------10-8-7----------------------------------------------|
5------------------------------------------------------------------|
6------------------------------------------------------------------|

I'm not….
…says no.
                                            perchintabs.blogspot.com
Добавлено: 03.07.2012
Вам также может быть интересно:
Другие материалы по этой песне:
  • Аккорды и текст

Страница создана 03.07.2012
http://primanota.ru/kiske-somerville/if-i-had-a-wish-chords.htm
Привет, Гость.
Предлагаем пройти революционный курс по гитаре.
Подарок от PrimaNota.Ru, забирай!