PrimaNota.ru - самый крупный в мире бесплатный архив песенных текстов, аккордов, табулатур и нот


Kishida Kyoudan - Gate Sore Wa Akatsuki No You Ni (feat. The Akeboshi Rockets) - таба, видео

Регистрация Запомнить меня
Войти через:  Facebook Google Twitter Vk Yandex Mail.ru

Kishida Kyoudan - Gate Sore Wa Akatsuki No You Ni (feat. The Akeboshi Rockets) - таба, видео

Печатать
Просмотров: 183
-------------------------------------------------------------------------------
   Gate: Sore wa akatsuki no you ni - Kishida Kyoudan And The Akeboshi Rockets
-------------------------------------------------------------------------------
Tabbed by: ZeroRequiem95
E-mail: maicolfc95@live.it

Tuning: Standard
Here there are some parts of the opening "Gate: Sore wa akatsuki no you ni".
I would really like you to fill it with the verse and pre-chorus, so that everyone
will be able to play this song!  I LOVE IT!

Intro:

e|-----------------------(         PALM MUTE         )-----------------------|
B|---8--10--7--8-------------------------------------------------------------|
G|----------------x2-------12--11-12--12--14--12--12-------------------------|
D|---5--7---4--5---------12--12-----12--12--12--12--12-----------------------|
A|---------------------------------------------------------------------------|
E|---------------------------------------------------------------------------|

e|---------------------------------------------------------------------------|
B|---------------------------------------------------------------------------|
G|---12-12-14-12-14-12---12-12-14-12-14-12---12-12-14-12-14-12--12-12-11-11--|
D|---12-12-12-12-12-12---12-12-12-12-12-12---12-12-12-12-12-12--12-12-12-12--|
A|---------------------------------------------------------------------------|
E|---------------------------------------------------------------------------|

e|---------------------------------------------------------------------------|
B|---------------------------------------------------------------------------|
G|---12-12-14-12-14-12---12-12-14-12-14-12---12-12-14-12-14-12--12-11-11-11--|
D|---12-12-12-12-12-12---12-12-12-12-12-12---12-12-12-12-12-12--12-12-12-12--|
A|---------------------------------------------------------------------------|
E|---------------------------------------------------------------------------|

Verse: ?

e|---------------------------------------------------------------------------|
B|---------------------------------------------------------------------------|
G|---------------------------------------------------------------------------|
D|---------------------------------------------------------------------------|
A|---------------------------------------------------------------------------|
E|---------------------------------------------------------------------------|

Pre Chorus: ?
e|---------------------------------------------------------------------------|
B|---------------------------------------------------------------------------|
G|---------------------------------------------------------------------------|
D|---------------------------------------------------------------------------|
A|---------------------------------------------------------------------------|
E|---------------------------------------------------------------------------|


Chorus:

e|---------------------------------------------------------------------------|
B|---------------------------------------------------------------------------|
G|---5----7---------------------5----7--8-9----------------------------------|
D|---5----7----9----2-----------5----7--9-9----------------------------------|
A|---3----5----9----2-----------3----5--6-7----------------------------------|
E|-------------7----0--------------------------------------------------------|

e|---------------------------------------------------------------------------|
B|---------------------------------------------------------------------------|
G|---5----7---------------------5----7---9-----------------------------------|
D|---5----7----9----2-----------5----7---9-----------------------------------|
A|---3----5----9----2-----------3----5---7-----------------------------------|
E|-------------7----0--------------------------------------------------------|

e|---------------------------------------------------------------------------|
B|---------------------------------------------------------------------------|
G|-------5-------7-----------------------------------------------------------|
D|---2---5---5---7--x2-------------------------------------------------------|
A|---2---3---5---5-----------------------------------------------------------|
E|---0-------3---------------------------------------------------------------|

e|---------------------------------------------------------------------------|
B|---------------------------------------------------------------------------|
G|---12-12-14-12-14-12---12-12-14-12-14-12---12-12-14-12-14-12--12-12-11-11--|
D|---12-12-12-12-12-12---12-12-12-12-12-12---12-12-12-12-12-12--12-12-12-12--|
A|---------------------------------------------------------------------------|
E|---------------------------------------------------------------------------|

e|---------------------------------------------------------------------------|
B|---------------------------------------------------------------------------|
G|---12-12-14-12-14-12---12-12-14-12-14-12---12-12-14-12-14-12--12-11-11-11--|
D|---12-12-12-12-12-12---12-12-12-12-12-12---12-12-12-12-12-12--12-12-12-12--|
A|---------------------------------------------------------------------------|
E|---------------------------------------------------------------------------|

************************************

| /   slide up
| \   slide down
| h   hammer-on
| p   pull-off
| ~   vibrato
| +   harmonic
| x   Mute note
| b   Bend
| pb  Pre-bend
| br  Bend release
| pbr Pre-bend release
| brb Bend release bend

************************************
Добавлено: 06.06.2016
Вам также может быть интересно:
Другие материалы по этой песне:
  • Аккорды и текст

Страница создана 06.06.2016
http://primanota.ru/kishida-kyoudan/gate-sore-wa-akatsuki-no-you-ni-chords.htm
Привет, Гость.
Предлагаем пройти революционный курс по гитаре.
Подарок от PrimaNota.Ru, забирай!