PrimaNota.ru - самый крупный в мире бесплатный архив песенных текстов, аккордов, табулатур и нот


Kiscsillag - Mi Mehet - аккорды и текст, видео

Регистрация Запомнить меня
Войти через:  Facebook Google Twitter Vk Yandex Mail.ru

Kiscsillag - Mi Mehet - аккорды и текст, видео

Печатать
Просмотров: 74
Mi Mehet
Kiscsillag
Előadó/Artist: Kiscsillag
Dal/Song: Mi mehet?
Album: Szeles
Készítette/Tabbed by: Farkas Péter

Hangolás/Tuning: Standard (EADGBe)


Em    |022000|
Em*   |3x5453|
G     |355433|
D7/G  |354533|
E     |022100|
D7    |x5453x|
F#    |244322|



INTRO:

e|------------------|------------------|
B|------------------|------------------|
G|---4p0------------|---4p0------------|
D|-------4---0h4-5~-|-------4---0h4----|
A|-7-------7--------|-7-------7-----7~-|
E|------------------|------------------|


 Em                  G
  Tudom én is mindig elrejtettem,
 Em*               D7/G
  De mi mehet a fiatal fejekben?
 Em                   G
  Mert a korral járó kegyetlenség
 Em*        D7/G
  Amit azért megtippelnék.
 G                  E                      F#
  Mehetne jobban is, emlékszem na, hogy is volt
              G
  A fejünkben egy kicsi kalitka,
  F#                   G             D7
  Három csapzott pinty ott csipkedte egymást:
  A Kényszer, az Érdek, és a kedvenc: a kis Ösztön-

  
e|------------------|------------------|
B|------------------|------------------|
G|---4p0------------|---4p0------------|
D|-------4---0h4-5~-|-------4---0h4----|
A|-7-------7--------|-7-------7-----7~-|
E|------------------|------------------|
 -élet.



Em                 G
  Isten enni ad a tálkájukba,
Em*         D7/G
  Kopogatják egymás mellett.
Em                     G           Em*               D7/G
  A szűkös röptérben a harci helyzet tamponált az étel által.
 G                       E              
  Kényszer tojást vállal, Érdek fennen szárnyal,
F#                     G
  Csak Ösztönélet ül le szemben a tálacskával.
 F#            G
  Úgy kérdezi, azt faggatja: 
 D7
  Ugye nem ürülsz ki soha? 
  Ugye nem ürülsz ki soha?
  Ugye nem ürülsz ki, Ugye nem ürülsz ki soha?   


e|------------------|------------------|
B|------------------|------------------|
G|---4p0------------|---4p0------------|
D|-------4---0h4-5~-|-------4---0h4----|
A|-7-------7--------|-7-------7-----7~-|
E|------------------|------------------|


                               __
Em            G                  |
   Ha a világ nem ad munkát,     |
F#          E                    | x6
   Én adok munkát a világnak.    |
                               __| 
Добавлено: 12.06.2016
Другие материалы по этой песне:
  • Аккорды и текст

Страница создана 12.06.2016
http://primanota.ru/kiscsillag/mi-mehet-chords.htm
Привет, Гость.
Предлагаем пройти революционный курс по гитаре.
Подарок от PrimaNota.Ru, забирай!