PrimaNota.ru - самый крупный в мире бесплатный архив песенных текстов, аккордов, табулатур и нот


Кирсанов Яков - Жаль, она мне не жена (ft. Денис Годицкий) - аккорды и текст, видео

Регистрация Запомнить меня
Войти через:  Facebook Google Twitter Vk Yandex Mail.ru

Кирсанов Яков - Жаль, она мне не жена (ft. Денис Годицкий) - аккорды и текст, видео

Печатать
Просмотров: 204
Уроки эстрадного вокала в Санкт-Петербурге
Жаль, она мне не жена (ft. Денис Годицкий)
Кирсанов Яков
Вступление (соло):
E---10-10-8-8-------------------
B-----------------11-10-11----
G----------------------------------7-

E---10-10-8-8-------------------
B-----------------11--10--11------
G----------------------------------7-

E----------------------8--------------
B----------11--11-----------11-----
G--7--8------------------------------

E---10-10-8-8-------------------
B-----------------11--10--11----7-
G------------------------------------

E---10-10-8-8-------------------
B-----------------11--10--11----7-
G------------------------------------

E--10--10---8-11-10--8----------
B--------------------------------------
G--------------------------------------

Gm
Когда сбежать захочется
                   Cm
Вдвоем от одиночества в далекие края,
Eb
Путями белоснежными 
Cm      D7
Ко мне приходит нежная бессонница моя.

На мягких лапах кошкою
Извилистой дорожкою, чтоб не узнал никто.
Наполнит мир секретами, 
Духами и рассветами, и станет в нем тепло.


Припев :
D7        Gm
А жаль она мне мне не жена,
Cm
А я по ней схожу с ума,
D7
О Боже как она нежна,
Cm   D7    Gm    D7
Как жаль она мне жена.
D7      Gm
А жаль она мне не жена,
   Cm
Но Боже как она нежна,
    D7
Она сведет меня с ума,
   Cm    D7    Eb7M       D7
Как жаль она мне не жена (о-оу-оу ).



Летаем, таем, каемся 
И снова зарекаемся,что больше не вдвоем,
Но номер набираю сам,
И как-то получается- мы новой встречи ждем.

И в этом ожидании
Сгорают синим пламенем и ссоры и вранье.
Я знаю так не правильно, 
Но все же я не каменный и по уши влюблен.
Добавлено: 26.07.2015
Другие материалы по этой песне:
  • Аккорды и текст

Страница создана 26.07.2015
http://primanota.ru/kirsanov-yakov/zhal-ona-mne-ne-zhena-ft-denis-godickii-chords.htm
Привет, Гость.
Предлагаем пройти революционный курс по гитаре.
Подарок от PrimaNota.Ru, забирай!