PrimaNota.ru - самый крупный в мире бесплатный архив песенных текстов, аккордов, табулатур и нот


Кирпичи - Работа-свобода - аккорды и текст, видео

Регистрация Запомнить меня
Войти через:  Facebook Google Twitter Vk Yandex Mail.ru

Кирпичи - Работа-свобода - аккорды и текст, видео

Печатать
Просмотров: 241
Работа-свобода
Кирпичи
Басовый рифф куплета я нашел где-то в Интернете
и решил подобрать гитару. Вот что получилось. 

БАС в КУПЛЕТЕ:

1|-----------------------|
2|-----------------------|
3|-----------------------|
4|--5------0-5-0-1----4--|

ГИТАРА С ДИСТОРШНОМОВЕРДРАЙВОМ в ПРИПЕВЕ:

   я 
1|---------------------------|
2|---------------------------|
3|---------8-8--7-7-7-7-8-7--|
4|--7--7-7-8-8--7-7-7-7-8-7--|
5|--7--7-7-6-6--5-5-5-5-6-5--|
6|--5--5-5-------------------|
   я изучаю свободу 
1|-------------------|
2|-------------------|
3|---------8-8--7-7--|
4|--7--7-7-8-8--7-7--|
5|--7--7-7-6-6--5-5--|
6|--5--5-5-----------|

ПРОИГРЫШ в конце:

1|---------------------------------|
2|---------------------------------|
3|------------------8--8-7--7-8-7--|
4|--7--5--7--7-7-7--8--8-7--7-8-7--|
5|--7--5--7--7-7-7--6--6-5--5-6-5--|
6|--5--3--5--5-5-5-----------------|

1|---------------------|
2|---------------------|
3|---------------------|
4|--7--5--7--7-7-7--5--|
5|--7--5--7--7-7-7--5--|
6|--5--3--5--5-5-5--3--|
Добавлено: 21.10.2013
Другие материалы по этой песне:
  • Аккорды и текст

Страница создана 21.10.2013
http://primanota.ru/kirpichi/rabota-svoboda-2-chords.htm
Привет, Гость.
Предлагаем пройти революционный курс по гитаре.
Подарок от PrimaNota.Ru, забирай!