PrimaNota.ru - самый крупный в мире бесплатный архив песенных текстов, аккордов, табулатур и нот


Kira And The Kindred Spirits - Save Me - таба, видео

Регистрация Запомнить меня
Войти через:  Facebook Google Twitter Vk Yandex Mail.ru

Kira And The Kindred Spirits - Save Me - таба, видео

Печатать
Просмотров: 132
Intro
e|-----------------------------------------------------------------------------------|
b|-----------------------------------------------------------------------------------|
g|-----------------------------------------------------------------------------------|
d|-----2----2----2----2----2----2----2----2----2----2----2----2----2----2----2----2--|
a|-------------------------------------------0----0----0----0------------------------|
e|--0----0----0----0----3----3----3----3-----------------------3----3----3----3------| x2

Vers 1
e|-----------------------------------------------------------------------------------|
b|-----------------------------------------------------------------------------------|
g|-----------------------------------------------------------------------------------|
d|-----2----2----2----2----2----2----2----2----2----2----2----2----2----2----2----2--|
a|-------------------------------------------0----0----0----0------------------------|
e|--0----0----0----0----3----3----3----3-----------------------3----3----3----3------|

Save me, save me, from this loneliness and fear...


It's my first tab, so i only tabbed this part yet. 
Please, if you've tabbed the rest, or have any comments contact me: matwild90@hotmail.com

Добавлено: 08.07.2012
Другие материалы по этой песне:
  • Аккорды и текст

Страница создана 06.03.2012
http://primanota.ru/kira-and-the-kindred-spirits/save-me-chords.htm
Привет, Гость.
Предлагаем пройти революционный курс по гитаре.
Подарок от PrimaNota.Ru, забирай!