PrimaNota.ru - самый крупный в мире бесплатный архив песенных текстов, аккордов, табулатур и нот


Кино, Виктор Цой - Раньше в Твоих Глазах... - аккорды и текст, видео

Регистрация Запомнить меня
Войти через:  Facebook Google Twitter Vk Yandex Mail.ru

Кино, Виктор Цой - Раньше в Твоих Глазах... - аккорды и текст, видео

Печатать
Просмотров: 1127
Раньше в Твоих Глазах...
Кино, Виктор Цой
Раньше в твоих глазах...


Em      Em/G      Hm7               Em       Em/G
E|-----------------|-----------------|-----------------|
H|-----------------|-----------------|-----------------|
G|-------0-------0-|-------0---------|-------0-------0-|
D|-----4-------4---|-----7---7-------|-----4-------4---|
A|---2-------2-----|---5-------5---5-|---2-------2-----|
E|-0-------3-------|-7-----------7---|-0-------3-------|

Hm7              Em      Em/G       Hm7
E|-----------------|-----------------|-----------------|
H|-----------------|-----------------|-----------------|
G|-------0-----7---|-------0-------0-|-------0---------|
D|-----7---7-----0-|-----4-------4---|-----7---7-------|
A|---5-------5-----|---2-------2-----|---5-------5---5-|
E|-7---------------|-0-------3-------|-7-----------7---|


Em      Em/G     Hm7                Em      Em/G     Hm7
Раньше в твоих глазах отражались костры
E|-----------------|-----------------|-----------------|-----------------|
H|-----------------|-----------------|-----------------|-----3-----3-----|
G|-------0-------0-|-------0---------|-------0-------0-|---0-----0---0---|
Добавлено: 02.04.2012
Другие материалы по этой песне:

Страница создана 02.04.2012
http://primanota.ru/kino-2/ranshe-v-tvoix-glazax-chords.htm
Привет, Гость.
Предлагаем пройти революционный курс по гитаре.
Подарок от PrimaNota.Ru, забирай!