PrimaNota.ru - самый крупный в мире бесплатный архив песенных текстов, аккордов, табулатур и нот


Kinks - Waterloo - аккорды и текст, видео

Регистрация Запомнить меня
Войти через:  Facebook Google Twitter Vk Yandex Mail.ru

Kinks - Waterloo - аккорды и текст, видео

Печатать
Просмотров: 74
Waterloo
Kinks
Tuning : E A D G Time Signature: 4/4
 
| | | |
||4/--2---4-------4-------4/------2-------2-------2-------2--------|
|----------------------------5------------------------------------|
|-----------------------------------------------------------------|
||-----------------------------------------------------------------|

| | | |
|-1-------1-------1-------1----------------------------------------|
|---------------------------------4-------4-------4-------4/--1----|
|------------------------------------------------------------------|
|------------------------------------------------------------------|

| | | |
|-----------------------------5-----------------------------------||
|-2-------2-------2-------2/--------------------------------------||
|---------------------------------6-------6-------6-------6-------||
|-----------------------------------------------------------------||

1| | | |
|------------------------------------------------------------------|
|------------------------------------------------------------------|
|-4-------4-------4-------4-------2---------------2----------------|
|------------------------------------------------------------------|

| | | |
|------------------------------------------------------------------|
|------------------------------------------------------------------|
|------------------------------------------------------------------|
|-0----------------------------------------------------------------|

| | | |
|------------------------------------------------------------------|
|------------------------------------------------------------------|
|------------------------------------------------------------------|
|------------------------------------------------------------------|

| | | |
|------------------------------------------------------------------|
|------------------------------------------------------------------|
|------------------------------------------------------------------|
|------------------------------------------------------------------|

| | | |
|------------------------------------------------------------------|
|------------------------------------------------------------------|
|------------------------------------------------------------------|
|------------------------------------------------------------------|

| | | |
|-9/------6--------------------------------------------------------|
|------------------------------------------------------------------|
|------------------------------------------------------------------|
|------------------------------------------------------------------|

| | | |
|-8----------------------------------------------------------------|
|---------9--------------------------------------------------------|
|------------------------------------------------------------------|
|------------------------------------------------------------------|

| | | |
|-6----------------------------------------------------------------|
|------------------------------------------------------------------|
|------------------------------------------------------------------|
|------------------------------------------------------------------|

| | | |
|---------11-------------------------------------------------------|
|-11---------------------------------------------------------------|
|------------------------------------------------------------------|
|------------------------------------------------------------------|

| | | |
|-9----------------------------------------------------------------|
|---------8--------------------------------------------------------|
|------------------------------------------------------------------|
|------------------------------------------------------------------|

| | | |
|-8/---------------------------------------------------------------|
|---------7--------------------------------------------------------|
|------------------------------------------------------------------|
|------------------------------------------------------------------|

| | | |
|-6----------------------------------------------------------------|
|------------------------------------------------------------------|
|------------------------------------------------------------------|
|------------------------------------------------------------------|

| | | |
|-6-------------------------------6--------------------------------|
|-----------------------------------------6------------------------|
|------------------------------------------------------------------|
|------------------------------------------------------------------|

| | | |
|------------------------------------------------------------------|
|-4-------------------------------4-------4------------------------|
|------------------------------------------------------------------|
|------------------------------------------------------------------|

| | | |
|------------------------------------------------------------------|
|-3-------------------------------3-------3------------------------|
|------------------------------------------------------------------|
|------------------------------------------------------------------|

| | | |
|------------------------------------------------------------------|
|-2-------------------------------2-------2------------------------|
|------------------------------------------------------------------|
|------------------------------------------------------------------|

| | | |
|------------------------------------------------------------------|
|------------------------------------------------------------------|
|-2---------------2---------------2---------------2----------------|
|------------------------------------------------------------------|

| | | |
|-9----------------------------------------------------------------|
|------------------------------------------------------------------|
|------------------------------------------------------------------|
|------------------------------------------------------------------|

| | | |
|-8----------------------------------------------------------------|
|------------------------------------------------------------------|
|------------------------------------------------------------------|
|------------------------------------------------------------------|

| | | |
|-6----------------------------------------------------------------|
|------------------------------------------------------------------|
|------------------------------------------------------------------|
|------------------------------------------------------------------|

| | | |
|---------22----------------------2-------1------------------------|
|-19/-----------------------------------------------------4--------|
|------------------------------------------------------------------|
|------------------------------------------------------------------|

| | | |
|------------------------------------------------------------------|
|-4---------------4---------------2---------------2----------------|
|------------------------------------------------------------------|
|------------------------------------------------------------------|

| | | |
|------------------------------------------------------------------|
|-1---------------1------------------------------------------------|
|---------------------------------4---------------4----------------|
|------------------------------------------------------------------|

| | | |
|------------------------------------------------------------------|
|---------------------------------4---------------4----------------|
|-2-----------------------2----------------------------------------|
|------------------------------------------------------------------|

| | | |
|---------------------------------2-------1------------------------|
|-2-----------------------2-------------------------------4--------|
|------------------------------------------------------------------|
|------------------------------------------------------------------|

| | | |
|------------------------------------------------------------------|
|-4---------------4---------------2---------------2----------------|
|------------------------------------------------------------------|
|------------------------------------------------------------------|

| | | |
|-----------------------------------------------------------------||
|-1---------------1-----------------------------------------------|
|---------------------------------4---------------4---------------|
|-----------------------------------------------------------------||

2| | | |
|---------------------------------------------------------11-------|
|-------------------------------------------------9/---------------|
|---------------------------------2--------------------------------|
|-9-------9-------9-------9----------------------------------------|

| | | |
|-9/------6--------------------------------------------------------|
|------------------------------------------------------------------|
|------------------------------------------------------------------|
|------------------------------------------------------------------|

| | | |
|------------------------------------------------------------------|
|-4---------------4---------------2---------------2----------------|
|------------------------------------------------------------------|
|------------------------------------------------------------------|

| | | |
|------------------------------------------------------------------|
|-1---------------1------------------------------------------------|
|---------------------------------4---------------4----------------|
|------------------------------------------------------------------|

| | | |
|------------------------------------------------------------------|
|---------------------------------4---------------4----------------|
|-2-----------------------2----------------------------------------|
|------------------------------------------------------------------|

| | | |
|---------------------------------2-------1------------------------|
|-2-----------------------2-------------------------------4--------|
|------------------------------------------------------------------|
|------------------------------------------------------------------|

| | | |
|------------------------------------------------------------------|
|-4---------------4---------------2---------------2----------------|
|------------------------------------------------------------------|
|------------------------------------------------------------------|

| | | |
|------------------------------------------------------------------|
|-1---------------1------------------------------------------------|
|---------------------------------4---------------4----------------|
|------------------------------------------------------------------|

| | | |
|-9-------6--------------------------------------------------------|
|------------------------------------------------------------------|
|------------------------------------------------------------------|
|------------------------------------------------------------------|

| | | |
|-8/---------------------------------------------------------------|
|---------8--------------------------------------------------------|
|------------------------------------------------------------------|
|------------------------------------------------------------------|

| | | |
|-6----------------------------------------------------------------|
|------------------------------------------------------------------|
|------------------------------------------------------------------|
|------------------------------------------------------------------|

| | | |
|-2----------------------------------------------------------------|
|------------------------------------------------------------------|
|------------------------------------------------------------------|
|------------------------------------------------------------------|

| | | |
|-9-----------------------------------------------9----------------|
|-------------------------------------------------------9----------|
|------------------------------------------------------------------|
|------------------------------------------------------------------|

| | | |
|-8-----------------------------------------------8/---------------|
|---------------------------------------------------------8--------|
|------------------------------------------------------------------|
|------------------------------------------------------------------|

| | | |
|-6-----------------------------------------------6/---------------|
|---------------------------------------------------------6--------|
|------------------------------------------------------------------|
|------------------------------------------------------------------|

| | | |
|-4-----------------------------------------------4----------------|
|------------------------------------------------------------------|
|-----------------2---------------2--------------------------------|
|------------------------------------------------------------------|

| | | |
|-----------------4-------------------------------4----------------|
|------------------------------------------------------------------|
|-2---------------------------2---2-------2------------------------|
|------------------------------------------------------------------|

| | | |
|-----------------4-------------------------------4----------------|
|------------------------------------------------------------------|
|-2-------------------------------2--------------------------------|
|------------------------------------------------------------------|

| | | |
|-----------------4-------------------------------4----------------|
|------------------------------------------------------------------|
|-2-------------------------------2--------------------------------|
|------------------------------------------------------------------|

| | | |
|-----------------4-------------------------------4----------------|
|------------------------------------------------------------------|
|-2---------------------------2---2-------2------------------------|
|------------------------------------------------------------------|

| | | |
|-----------------4-------------------------------4----------------|
|------------------------------------------------------------------|
|-2-------------------------------2--------------------------------|
|------------------------------------------------------------------|

| | | |
|-----------------4-------------------------------4----------------|
|------------------------------------------------------------------|
|-2-------2-----------2-------2---2-------2------------------------|
|------------------------------------------------------------------|

| | | |
|-----------------4-------------------------------4----------------|
|------------------------------------------------------------------|
|-2---------------------------2---2-------2------------------------|
|------------------------------------------------------------------|

| | | |
|------------------------------------------------------------------|
|------------------------------------------------------------------|
|-2----------------------------------------------------------------|
|------------------------------------------------------------------|
Добавлено: 30.03.2014
Другие материалы по этой песне:
  • Аккорды и текст

Страница создана 30.03.2014
http://primanota.ru/kinks/waterloo-chords.htm
Привет, Гость.
Предлагаем пройти революционный курс по гитаре.
Подарок от PrimaNota.Ru, забирай!