PrimaNota.ru - самый крупный в мире бесплатный архив песенных текстов, аккордов, табулатур и нот


Kinks - So Tired Of Waiting For You - бас-таба, видео

Регистрация Запомнить меня
Войти через:  Facebook Google Twitter Vk Yandex Mail.ru

Kinks - So Tired Of Waiting For You - бас-таба, видео

Печатать
Просмотров: 72
kinks-so_tired_of_waiting_for_you.btab

Basstab by Jan Bjorklund, Finland; 
jani_bjorklund@yahoo.se 
You are welcome to request for basstabs!
Bienvenidos a pedirme transcripciones para el bajo!
Fingering and positions as suggested by TablEdit. 

TablEdited by Jan Bjorklund
Tuning : E A D G 	Time Signature: 4/4

 |       |       |       |        |       |       |       |        
|0-------------------------------|--------------------------------|
|------------0---3---------------|--------------------------------|
|----------------------------3---|--------------------------------|
|--------------------------------|3-----------3---1-----------1---|

 |       |       |       |        |       |       |       |        
|--------------------------------|--------------------------------|
|--------------------------------|--------------------------------|
|--------------------------------|--------------------------------|
|3-----------3---1-----------1---|3-----------3---1-----------1---|

 |       |       |       |        |       |       |       |        
|--------------------------------|--------------------------------|
|----------------3---------------|--------------------------------|
|----------------------------3---|--------------------------------|
|3-----------3-------------------|3-----------3---1-----------1---|

 |       |       |       |        |       |       |       |        
|--------------------------------|--------------------------------|
|--------------------------------|--------------------------------|
|--------------------------------|--------------------------------|
|3-----------3---1-----------1---|3-----------3---1-----------1---|

 |       |       |       |        |       |       |       |        
|--------------------------------|--------------------------------|
|----------------3---------------|----------------3---------------|
|----------------------------3---|----------------------------3---|
|3-----------3-------------------|3-----------3-------------------|

 |       |       |       |        |       |       |       |        
|0-------------------------------|0-------------------------------|
|------------0---3---------------|------------0---3---------------|
|----------------------------3---|----------------------------3---|
|--------------------------------|--------------------------------|

 |       |       |       |        |       |       |       |        
|0-------------------------------|--------------------------------|
|------------0-------------------|----------------3---------------|
|--------------------------------|----------------------------3---|
|----------------1-----------1---|3-----------3-------------------|

 |       |       |       |        |       |       |       |        
|--------------------------------|--------------------------------|
|3-------------------------------|3-------------------------------|
|------------3---3---------------|------------3---3---------------|
|----------------------------3---|----------------------------3---|

 |       |       |       |        |       |       |       |        
|--------------------------------|--------------------------------|
|3-------------------------------|--------------------------------|
|------------3---3-----------3---|--------------------------------|
|--------------------------------|1-----------1---1-------2-------|

 |       |       |       |        |       |       |       |        
|--------------------------------|0-------------------------------|
|----------------0-----------0---|------------0---0-----------0---|
|--------------------------------|--------------------------------|
|3-----------3-------------------|--------------------------------|

 |       |       |       |        |       |       |       |        
|--------------------------------|--------------------------------|
|----------------0---------------|--------------------------------|
|----------------------------0---|--------------------------------|
|3-----------3-------------------|3-----------3---3-----------3---|

 |       |       |       |        |       |       |       |        
|--------------------------------|--------------------------------|
|--------------------------------|----------------4-----------4---|
|--------------------------------|2-----------2-------------------|
|3-------------------------------|--------------------------------|

 |       |       |       |        |       |       |       |        
|--------------------------------|--------------------------------|
|3-----------3-------------------|0-----------0-----------0-------|
|----------------3-----------3---|----------------0---------------|
|--------------------------------|--------------------------------|

 |       |       |       |        |       |       |       |        
|0-----------0-------------------|--------------------------------|
|----------------0-----------0---|--------------------------------|
|--------------------------------|2---------------2---2-------2---|
|--------------------------------|------------2-------------------|

 |       |       |       |        |       |       |       |        
|--------------------------------|------------2-------------------|
|3-----------3-----------3-------|0---------------0-------0-------|
|----------------3---------------|--------------------------------|
|--------------------------------|--------------------------------|

 |       |       |       |        |       |       |       |        
|--------------------------------|--------------------------------|
|3-----------3-------------------|0---------------0---0-------0---|
|----------------3-----------3---|------------0-------------------|
|--------------------------------|--------------------------------|

 |       |       |       |        |       |       |       |        
|--------------------------------|--------------------------------|
|----------------3---------------|----------------3---------------|
|----------------------------3---|----------------------------3---|
|3-----------3-------------------|3-----------3-------------------|

 |       |       |       |        |       |       |       |        
|0-------------------------------|--------------------------------|
|------------0---3---------------|--------------------------------|
|----------------------------3---|--------------------------------|
|--------------------------------|3-----------3---1-----------1---|

 |       |       |       |        |       |       |       |        
|--------------------------------|0-------------------------------|
|--------------------------------|------------0-------------------|
|--------------------------------|--------------------------------|
|3-----------3---1-----------1---|----------------1-----------1---|

 |       |       |       |        |       |       |       |        
|--------------------------------|0-------------------------------|
|--------------------------------|------------0-------------------|
|--------------------------------|--------------------------------|
|3-----------3---1-----------1---|----------------1-----------1---|

 |       |       |       |        |       |       |       |        
|--------------------------------|--------------------------------|
|--------------------------------|----------------3---------------|
|--------------------------------|----------------------------3---|
|3-----------3---1-----------1---|3-----------3-------------------|

 |       |       |       |        |       |       |       |        
|--------------------------------|--------------------------------|
|--------------------------------|3-------------------------------|
|----------------3-----------3---|------------3---3---------------|
|1-----------1-------------------|----------------------------3---|

 |       |       |       |        |       |       |       |        
|--------------------------------|--------------------------------|
|3-------------------------------|3-------------------------------|
|------------3---3---------------|------------3-------------------|
|----------------------------3---|----------------1-------2-------|

 |       |       |       |        |       |       |       |        
|0-------------------------------|--------------------------------|
|------------0---0---------------|----------------0-----------0---|
|----------------------------0---|--------------------------------|
|--------------------------------|3-----------3-------------------|

 |       |       |       |        |       |       |       |        
|0-------------------------------|--------------------------------|
|------------0---0-----------0---|--------------------------------|
|--------------------------------|--------------------------------|
|--------------------------------|3-----------3---3-----------3---|

 |       |       |       |        |       |       |       |        
|--------------------------------|--------------------------------|
|--------------------------------|----------------4-----------4---|
|--------------------------------|2-----------2-------------------|
|3-------------------------------|--------------------------------|

 |       |       |       |        |       |       |       |        
|--------------------------------|----------------2-----------2---|
|3-----------3-------------------|0-----------0-------------------|
|----------------3-----------3---|--------------------------------|
|--------------------------------|--------------------------------|

 |       |       |       |        |       |       |       |        
|0---------------0---0-------0---|--------------------------------|
|------------0-------------------|--------------------------------|
|--------------------------------|2---------------2---2---2-------|
|--------------------------------|------------2---------------2---|

 |       |       |       |        |       |       |       |        
|--------------------------------|------------2-------------------|
|3-----------3-------------------|0---------------0-------0-------|
|----------------3-----------3---|--------------------------------|
|--------------------------------|--------------------------------|

 |       |       |       |        |       |       |       |        
|--------------------------------|----------------2-----------2---|
|3---------------3-------2-------|0-----------0-------------------|
|------------3-------------------|--------------------------------|
|--------------------------------|--------------------------------|

 |       |       |       |        |       |       |       |        
|--------------------------------|0-------------------------------|
|--------------------------------|------------0-------------------|
|--------------------------------|--------------------------------|
|3-----------3---1-----------1---|----------------1-----------1---|

 |       |       |       |        |       |       |       |        
|--------------------------------|0-------------------------------|
|--------------------------------|------------0---3---------------|
|--------------------------------|----------------------------3---|
|3-----------3---1-----------1---|--------------------------------|

 |       |       |       |        |       |       |       |        
|--------------------------------|--------------------------------|
|----------------3---------------|--------------------------------|
|----------------------------3---|--------------------------------|
|3-----------3-------------------|3-----------3---1-----------1---|

 |       |       |       |        |       |       |       |        
|--------------------------------|--------------------------------|
|----------------3---------------|----------------3---------------|
|----------------------------3---|----------------------------3---|
|3-----------3-------------------|3-----------3-------------------|

 |       |       |       |        |       |       |       |        
|--------------------------------|0-------------------------------|
|--------------------------------|------------0---3---------------|
|--------------------------------|----------------------------3---|
|3-----------3---1-----------1---|--------------------------------|

 |       |       |       |        |       |       |       |        
|--------------------------------|--------------------------------|
|--------------------------------|----------------3---------------|
|--------------------------------|----------------------------3---|
|3-----------3---1-----------1---|3-----------3-------------------|

 |       |       |       |        |       |       |       |        
|--------------------------------|0-------------------------------|
|----------------3---------------|------------0-------------------|
|----------------------------3---|--------------------------------|
|3-----------3-------------------|----------------1-----------1---|

 |       |       |       |        |       |       |       |        
|--------------------------------|--------------------------------|
|--------------------------------|--------------------------------|
|--------------------------------|--------------------------------|
|3-------------------------------|--------------------------------|


Created with TablEdit http://www.tabledit.com/


     
Добавлено: 06.09.2013
Другие материалы по этой песне:
  • Аккорды и текст

Страница создана 06.09.2013
http://primanota.ru/kinks/so-tired-of-waiting-for-you-chords.htm
Привет, Гость.
Предлагаем пройти революционный курс по гитаре.
Подарок от PrimaNota.Ru, забирай!