PrimaNota.ru - самый крупный в мире бесплатный архив песенных текстов, аккордов, табулатур и нот


Kinks - Lola Live - таба, видео

Регистрация Запомнить меня
Войти через:  Facebook Google Twitter Vk Yandex Mail.ru

Kinks - Lola Live - таба, видео

Печатать
Просмотров: 118
Title: Lola (Intro Solo)
Artist: The Kinks
Tempo = 120
Nylon Guitar
Note: It's the intro from the live version (see http://www.youtube.com/watch?v=C__CgQlaykI)

Legend
L - tied note
x - dead note
h - hammer on/pull off
b - bend
s - slide
~ - vibrato
g - ghost note
> - accentuated note
t - trill
M - palm mute
. - staccato
P - popping (bass)
S - slapping (bass)
+ - tapping
W - wide vibrato
< - fade in
w - whammy bar
= - tremolo picking
v - brush up
^ - brush down
V - pick stroke up
n - pick stroke down

     n     n     n     n  V       n  V     V     V     n     
E |--4s----4-----4-----2--2----|--2--0-----0-----4s----0----|
B |--5s----5-----5-----0--0----|--0--0-----0-----5s----0----|
G |--4s----4-----4-----2--2----|--2--1-----1-----4s----1----|
D |----------------------------|----------------------------|
A |----------------------------|----------------------------|
E |----------------------------|----------------------------|

  n     n     n     n  V       n  V     V                   n  n     
--2-----0-----0-----0--0----|--2--2-----2-----0----------|--0--0----|
--2-----2-----2-----2--2----|--3--3-----3-----------3----|--0--0----|
--2-----2-----2-----2--2----|--2--2-----2----------------|--1--1----|
----------------------------|----------------------------|----------|
----------------------------|----------------------------|----------|
----------------------------|----------------------------|----------|

  n  V  n  V  n  V  n  V       V     V
--4s-4--4--4--2--2--0--2----|--0-----0-------------------||
--5s-5--5--5--0--0--0--0----|--0-----0-------------------||
--4s-4--4--4--2--2--1--1----|--1-----1-------------------||
----------------------------|----------------------------||
----------------------------|----------------------------||
----------------------------|----------------------------||
Добавлено: 29.08.2013
Другие материалы по этой песне:
  • Аккорды и текст

Страница создана 29.08.2013
http://primanota.ru/kinks/lola-live-chords.htm
Привет, Гость.
Предлагаем пройти революционный курс по гитаре.
Подарок от PrimaNota.Ru, забирай!