PrimaNota.ru - самый крупный в мире бесплатный архив песенных текстов, аккордов, табулатур и нот


Kings X - We Are Finding Who We Are - текст песни, таба, видео

Регистрация Запомнить меня
Войти через:  Facebook Google Twitter Vk Yandex Mail.ru

Kings X - We Are Finding Who We Are - текст песни, таба, видео

Печатать
Просмотров: 132
WE ARE FINDING WHO WE ARE -- KING'S X  (1990 - Faith Hope Love)


The following is my best understanding of the song...  improve it if you
are able.

George Bruner

george6865@hotmail.com

Standard Tuning (EADGBe)
4/4 time

[Intro]
|------------------------|------------------------|
|--3h5~-3~---------------|------------------------|
|----------2h4-----------|------------------------|
|--------------4h6-------|----------6----5--------|
|-------------------7----|--5-----5---------------|
|------------------------|------7------6-----4----|



[Played over verses, let ring, repeat 4 times per verse]
|------------------------|------------------------|
|------------------------|------------------------|
|--------------4---------|-----------------3h4p3--|*
|-----------6------------|-----------------4------|*
|-------4----------------|-------------4----------|
|------------------------|------------------------|

The volume of emotion    erupting in our souls....




[Chorus]
|--3--3------0-----------|------------------------|--3--3------0-----------
|--3--3------0-----------|------------------------|--3--3------0-----------
|--1--1------0-----------|------------------------|--1--1------0-----------
|--2--2------------------|------------------------|--2--2------------------
|------------------------|----------------5-5-----|------------------------
|--------3p0-------------|-0-0-2-3-5bp3p0---------|--------3p0-------------

We are finding          who  we  are             we can   see


|------------------------|--3--3------0-----------|------------------------
|------------------------|--3--3------0-----------|------------------------
|------------------------|--1--1------0-----------|------------------------
|--------------3---------|--2--2------------------|------------------------
|-----------3----5-------|------------------------|----------------5-5-----
|-0-0-2-3-5---5----------|--------3p0-------------|-0-0-2-3-5bp3p0---------

forever                   We are finding          who  we  are


|--3--3------0-----------|------------------------|
|--3--3------0-----------|------------------------|
|--1--1------0-----------|------------------------|
|--2--2------------------|----------------5-2-----|
|------------------------|------------6-3---------|
|--------3p0-------------|-0-0-2-3-5--------------|

we can   see             forever



The song structure:

[intro]
[verse 1]
Forever is a mountain we've yet to climb
Tears are a part of what is yet to leave behind
Strength in numbers all you need is two
Everyone's a winner while still so many lose

[chorus]
[verse 2]
The volume of emotion erupting in our souls
A quiet revalation quickly takes a hold
Patience is a virture but she won't always wait
Dissension is the tension it's what we've leaned to hate

[chorus + sub]

subchorus (x4)

|------------------------|
|------------------------|
|------------------------|*
|------------2-2-5-2-----|*
|-5----7-----2-2-5-2-----|
|-3----5-----------------|

ah   ah    ah

[verse 3]
It was late September I remember well
Memories of living the old man told the tale
Of rising and falling of cruelty and kind
The things the old man told me truly blew my mind

[chorus + sub + bridge]

bridge

|------------------------|------------------------|------------------------
|------------------------|------------------------|------------------------
|-------------5--5~-4----|-------------7--7~-6----|------------------------
|-5--------5-----------5-|-7--------7-----------7-|-9----10----11-----12---
|-5-----5----------------|-7-----7----------------|-9----10----11-----12---
|-3--3-------------------|-5--5-------------------|-7--7--8--8--9--9--10-10

|------------------------|------------------------
|------------------------|------------------------
|------------------------|------------------------
|-13------14-------------|------------------------
|-13------14-------------|------------------------
|-11--11--12-------------|-0----------------------

[intro]
[chorus x3, third time over chorus sing]
I know it's been said so many times before
I once was blind but now I see
And sometimes it just makes no sense
But I...

Hit and let ring
|------------------------|
|------------------------|
|---4--------------------|
|---6--------------------|
|---4--------------------|
|------------------------|

...believe

[verse 1 -- a cappela]

end
Добавлено: 24.02.2012
Вам также может быть интересно:
Другие материалы по этой песне:
  • Аккорды и текст

Страница создана 24.02.2012
http://primanota.ru/kings-x/we-are-finding-who-we-are-chords.htm
Привет, Гость.
Предлагаем пройти революционный курс по гитаре.
Подарок от PrimaNota.Ru, забирай!