PrimaNota.ru - самый крупный в мире бесплатный архив песенных текстов, аккордов, табулатур и нот


Kings X - Out Of The Silent Planet - текст песни, таба, видео

Регистрация Запомнить меня
Войти через:  Facebook Google Twitter Vk Yandex Mail.ru

Kings X - Out Of The Silent Planet - текст песни, таба, видео

Печатать
Просмотров: 201
Уроки эстрадного вокала в Санкт-Петербурге
Авторы музыки: Doug Pinnick, Ty Tabor, Jerry Gaskill
Авторы текста: Doug Pinnick, Ty Tabor, Jerry Gaskill
		   "OUT OF THE SILENT PLANET" -Gretchen Goes to Nebraska  

as performed by:
KING'S X
Doug Pinnick     Ty Tabor    Jerry Gaskill

Tabulature by Joe King 
E-Mail: 75322.2466@compuserve.com

Tune = E > D (Drop D tuning)

H=Hammer  P=Pull  /(nn)=Bend(fret)  /\/\/\=vibrato  /=slide up  \=slide down


INTRO                        VERSE
     BASS INTRO              
E  --------------|----------|-----------------------------------------------
B  --------------|----------|-----------------------------------------------
G  --------------|-3--3-3---|-7--7-7-----5--5-----5--5-5----5--5-----7--7-7-
D  --------------|-0--2-2---|-6--7-6-----5--4-----2--4-4----5--4-----6--7-6-
A  --------------|----------|-----------------------------------------------
D  --------------|--------0-|--------0-0-------0----------0-------0---------


------------------------------------|
------------------------------------|
------5--5-----5--5-5-----3--3-3----|
------5--4-----2--4-4-----0--2-2----|
------------------------------------|
--0-0-------0----------0----------0-|


REPEAT VERSE x 2


CHORUS
                         
----------------------------------------------------------------------------
-------------------------3---------3---------3------------------------3-----
-------------------------1---------2---------1------------------------2-----
-------------------------0---------0---------0------------------------0-----
--0--2--3--/5--0--3--2---------2---------0--------0--2--3--3--2---2---------
--0--2--3--/5--0--3--2---------2---------0--------0--2--3--3--2---2---------


----------------------------------------------------------------------------
------3---------3-------------------------3----------3---------3------------
------2---------1-------------------------1----------2---------1------------
------0---------0-------------------------0----------0---------0------------
--2---------0---------0--2--3--3--2---2----------2---------0-------0--2--3--
--2---------0---------0--2--3--3--2---2----------2---------0-------0--2--3--


------------------------------------------------------------|
-------------3---------3---------3--------------------------|
-------------2---------2---------1--------------------------|
-------------0---------0---------0--------------------------|
--3--2---2---------2---------0---------0--2--3--2/(3)--0----|
--3--2---2---------2---------0---------0--2--3--2/(3)--0----|


BRIDGE

------------------------------|                 ---------------------------|
----------------------------6-| REPEAT 8x       -----------------------5---|                      
--7------7-----7------------5-| to = 1 BRIDGE   --7----7----7-------------5|
--5--H7--7--0--5--H7--5-------| except the 5th  --5-H7-7--0-5-H7--5--------|
-------------------------8----| time play:      ---------------------8-----|
------------------------------|                 ---------------------------|

REPEAT VERSE x 2

REPEAT CHORUS

REPEAT BRIDGE


INTERLUDE w/ REVERB
                 >= Volume Swell
----------------------------------------------------------------------------
--3-------------------------------------------------------------------------
--2-------------------------------------------------------------------------
--0---------- 6>-- 7>-- 6>-- 4>-- 2>-- 0>----- 6>-- 7>-- 6>-- 4>-- 2>-- 0>--
--0-------------------------------------------------------------------------
--0-------------------------------------------------------------------------


----------------------------------------------------------------------------
----------------------------------------------------------------------------
------------ 4>-- 6>-- 9>------------------- 4>-- 6>-- 9>-- 6>----- 9>-- 11>
-- 6>-- 7>----------------- 4>---- 6>-- 7>----------------------------------
----------------------------------------------------------------------------
----------------------------------------------------------------------------


----------------------------------------------------------------------------
-------------------------------------- 14>------------ 17>------------------
-- 13>-- 14>-- 16>--- 16>------- 14>-------- 14>-- 14>---- 14>-- 14>-- 9>---
----------------------------------------------------------------------------
----------------------------------------------------------------------------
----------------------------------------------------------------------------


---------------|
---------------|
-- 11>-- 7>----|
---------------|
---------------|
---------------|


REPEAT BRIDGE

REPEAT VERSE x 2

REPEAT CHORUS

END WITH BIG OPEN D CHORD


     
Добавлено: 03.12.2013
Другие материалы по этой песне:

Страница создана 25.02.2012
http://primanota.ru/kings-x/out-of-the-silent-planet-chords.htm
Привет, Гость.
Предлагаем пройти революционный курс по гитаре.
Подарок от PrimaNota.Ru, забирай!