PrimaNota.ru - самый крупный в мире бесплатный архив песенных текстов, аккордов, табулатур и нот


Kings X - Looking For Love - текст песни, бас-таба, видео

Регистрация Запомнить меня
Войти через:  Facebook Google Twitter Vk Yandex Mail.ru

Kings X - Looking For Love - текст песни, бас-таба, видео

Печатать
Просмотров: 152
Kings x
Looking for love

chorus and intro
G|----------------|---------------------|-----------------------|
D|----------------|*-------------------*|-----------------------|
A|----------------|*-------------------*|--4-4--6-6/8-6---------|
D|-1--44-4-66-4-1-|--1--44-4-66-4-1--1--|-----------------------|

verse
G|--------------------------------------------------------------|
D|--------------------------------------------------------------|
A|--------------------------------------------------------------|
D|-1-1--1-1-1--1-1-1--1-1-1--4-4-4--4-4-4--8-6-4----------------|

G|--------------------------------------------------------------|
D|--------------------------------------------------------------|
A|--------------------------------------------------------------|
D|-1-1--1-1-1--1-1-1--1-1-1/-9-9-9--9-9-9--9-9-9----------------|

bridge
G|---------------|----------------|-----------------|
D|---------------|*-------------*-|-----------------|
A|----4------4-6-|*---4-----1-1-*-|-----------------|
D|-1-----4-1-----|--1---4-1-------|-----------------|
Добавлено: 18.07.2012
Другие материалы по этой песне:
  • Аккорды и текст

Страница создана 05.03.2012
http://primanota.ru/kings-x/looking-for-love-chords.htm
Привет, Гость.
Предлагаем пройти революционный курс по гитаре.
Подарок от PrimaNota.Ru, забирай!