PrimaNota.ru - самый крупный в мире бесплатный архив песенных текстов, аккордов, табулатур и нот


Kings X - Its Love - текст песни, таба, видео

Регистрация Запомнить меня
Войти через:  Facebook Google Twitter Vk Yandex Mail.ru

Kings X - Its Love - текст песни, таба, видео

Печатать
Просмотров: 132
Уроки эстрадного вокала в Санкт-Петербурге
                                       It's Love                       

Tabbed by Bemo					
Written and performed by King's X	
on the Album Faith Hope Love
Megaforce Worldwide/Atlantic7 82145-2
                                                           
E||------------------------|--------------------------------|
B||------------------------|--------------------------------|
G||--12------12------11----|------11h-12p-11--9--12--11--9--|
D||--0-------0-------0-----|------0-------------------------|
A||------------------------|--------------------------------|
D||------------------------|--------------------------------|

                                                                       
 
----------------------|-------------------------||----------------------|
---------5------------|-------------------------||----------------------|
--5-----------5--4----|------4h-5p-4--0--------*||----------------------|
--0-----------0--0----|------0--------0--------*||----------------------|
----------------------|-------------------------||--2--3------3--5------|
----------------------|-------------------------||--2--3------3--5------|

                                                                       
    
|-------------------------|-----------------------|------------------------|
|-------------------------|-----------------------|------------------------|
|*-------------6----------|--6----6----------6----|--------6----6----------|
|*-------------7----------|--7----7----------7----|--------6----6----------|
|---0----0--0-------0--0--|------------0--0-------|--0--0------------0--0--|
|-------------------------|-----------------------|------------------------|

                                                                       
 
-----------------------|------------------------|-----------------------|
-----------------------|------------------------|-----------------------|
--6----6----------6----|--------6----6----------|--6----6----------6----|
--6----6----------6----|--------5----5----------|--5----5----------5----|
------------0--0-------|--0--0------------0--0--|------------0--0-------|
-----------------------|------------------------|-----------------------|

                                                                       
  
------------------------|------------------------||----------------------|
------------------------|------------------------||----------------------|
--------7----7----------|--7----7----------7----*||--------5----5--------|
--------5----5----------|--4----4----------4----*||--------3----3--------|
--0--0------------0--0--|------------0--0--------||--0--0----------------|
------------------------|------------0--0--------||--0--0----------------|

                                                                       
  
----------------------||-------------------------|-----------------------|
----------------------||-------------------------|-----------------------|
----------------------||*--------7----5----------|--4----4---------------|
----------------------||*--------7----5----------|--5----5---------------|
--3--5------5--3~-----||---0--0------------0--0--|------------0--0--3----|
--3--5------5--3~-----||---0--0------------0--0--|------------0--0--3----|

                                                                       
   
-------------------------|------------------------|-----------------------|
-------------------------|------------------------|-----------------------|
-------------------------|--------5----5----------|--4----4---------------|
-------------------------|--------5----5----------|--5----5---------------|
--3----0--0--3--0--3--5--|--3--0------------0--0--|------------0--0--5----|
--3----0--0--3--0--3--5--|--3--0------------0--0--|------------0--0--5----|

                                                                       
   
-----------------------||------------------------|-----------------------||
-----------------------||------------------------|-----------------------||
----------------------*||--4----4----------------|----------------------*||
----------------------*||--5----5----------------|----------------------*||
--5--3------0--3~------||------------0--0--5--4--|--3----3--2--1---------||
--5--3------0--3~------||------------0--0--5--4--|--3----3--2--1---------||


=====
B
MO

DJ Wannabe,
Cabbie,
Guitar freak.
     
Добавлено: 16.06.2013
Другие материалы по этой песне:

Страница создана 30.03.2012
http://primanota.ru/kings-x/its-love-chords.htm
Привет, Гость.
Предлагаем пройти революционный курс по гитаре.
Подарок от PrimaNota.Ru, забирай!