PrimaNota.ru - самый крупный в мире бесплатный архив песенных текстов, аккордов, табулатур и нот


Kings X - Goldilox - текст песни, бас-таба, драм-таба, видео

Регистрация Запомнить меня
Войти через:  Facebook Google Twitter Vk Yandex Mail.ru

Kings X - Goldilox - текст песни, бас-таба, драм-таба, видео

Печатать
Просмотров: 183
Song: Goldilox
Artist: King's X
Album: (2005) Ogre Tones - first time recorded in the album (1988) Out of the Silent Planet
Type: bass tab
Tabbed by: Rogerio (rogmont24@hotmail.com)

Simply, Wonderfull song!!!


INTRO

Chords -> A F#m D E F#m D F#m E D E A D
          Em Gbm(5b) G Gbm(5b) Em D

F |-------------------------------------------------------------------------|
C |-------------------------------------------------------------------------|
G |---2--------------------------------2------------------------------------|
D |------4--0---2--4--0-0-4--2---0--2-----0---------------------------------|


F |-------------------------------------------|
C |-------------------------------------------|
G |-------------------------------------------|
D |--2-4-5-4-2-0------------------------------|


Verse 1 - Play this 2 times...

I can't believe summer's almost here
I made it through another year even if alone
but there's no tears in my eyes
life is still full of surprise
I'm not looking for a one night stand ->> Chords -> A E D Em F#m A D Em F#m A D
                                                    Em Gbm(5b) D

F |------------------------------------------------|
C |------------------------------------------------|
G |---2---------2-------2--------------------------|
D |-----2-0-2-4---0-2-4---0------------------------|


F |----------------------------------------|
C |----------------------------------------|
G |----------------------------------------|
D |---2-4-0--------------------------------|


Pre-Chorus

I stand behind you and I watch you from a mile away
wishing you could be the one but not here this way ->> Chords -> F#m A D Em F#m A E F#m D

F |---------------------------------------------------------------|
C |---------------------------------------------------------------|
G |-------------2-----------------------2-------------------------|
D |---4-4-4-4-4---0-0-0-0-0-2-4-4-4-4-4---2-2-2-2-4-4-0-0---------|


Chorus

I'd like to know your name
and I must know who tou are Yeah ->> Chords -> A F#m D E F#m D F#m E D E A D
                                               Em Gbm(5b) G Gbm(5b) Em D

F |-------------------------------------------------------------------------|
C |-------------------------------------------------------------------------|
G |---2--------------------------------2------------------------------------|
D |------4--0---2--4--0-0-4--2---0--2-----0---------------------------------|

F |-------------------------------------------|
C |-------------------------------------------|
G |-------------------------------------------|
D |--2-4-5-4-2-0------------------------------|


Verse 2 - Play this 2 times...

I look at you and I know who you are
you're just a little bit too far from my home
but please don't get me wrong even though it has been long
I hope I never sing my last song without someone ->> Chords -> A E D Em F#m A D Em F#m A D
                                                               Em Gbm(5b) D

F |------------------------------------------------|
C |------------------------------------------------|
G |---2---------2-------2--------------------------|
D |-----2-0-2-4---0-2-4---0------------------------|


F |----------------------------------------|
C |----------------------------------------|
G |----------------------------------------|
D |---2-4-0--------------------------------|


After, play this sequence...


Pre-Chorus

Chorus

Solo = Pre-Chorus

Bridge = Chorus

Pre-Chorus

Chorus

The end!

Any errors or other things, please: Rogerio (rogmont24@hotmail.com)
Добавлено: 14.06.2012
Другие материалы по этой песне:

Страница создана 15.04.2012
http://primanota.ru/kings-x/goldilox-chords.htm
Привет, Гость.
Предлагаем пройти революционный курс по гитаре.
Подарок от PrimaNota.Ru, забирай!