PrimaNota.ru - самый крупный в мире бесплатный архив песенных текстов, аккордов, табулатур и нот


Kings X - Don't Care - текст песни, таба, видео

Регистрация Запомнить меня
Войти через:  Facebook Google Twitter Vk Yandex Mail.ru

Kings X - Don't Care - текст песни, таба, видео

Печатать
Просмотров: 152
		   "DON'T CARE"

as performed by:
KING'S X
Doug Pinnick     Ty Tabor    Jerry Gaskill

Tabulature by Joe King 
E-Mail: 75322.2466@compuserve.com   ?got any requests?

Tune as in dropped D, but tune all strings down 3 half steps.  Huh?
(you'll figure it out)

INTRO

C# -------------------------------------------------------------------
G# -------------------------------------------------------------------
E  -------------------------------------------------------------------
B  -------------------------------------------------------4-----------
F# -----------2----------------2-----------------0--2--3--2--3--2--0--
B  --0--2--3-----3--2--0--2--3-----3--X--3-------0--2--3-----3--2--0--


----------------------------------------------------------------------
----------------------------------------------------------------------
----------------------------------------------------------------------
------4---------------------------------------------------------------
2--3--2--3-----1------------------------------------------------------
2--3-----3-----1------------------------------------------------------

VERSE (play 2x)

----------------------------------------------------------------------
----------------------------------------------------------------------
----------------------------------------------------------------------
----------------------------------------------------------------------
------5--3--------3---------------------5--3-------3------------------
0--0-----------5-----5--4--3------0--0-----------5---5--3--0----------

----------------------------------------------------------------------
----------------------------------------------------------------------
----------------------------------------------------------------------
----------------------------------------------------------------------
------5--3-----0-------------0----------------------2-----------------
0--0-------------6--5--3--5-------0-0-0-2--2---2--3---3---3-----------

CHORUS

----------------------------------------------------------------------
6-------6-------6-----------------------------------------------------
5-------3-------5-----------------------------------------------------
3-------3-------3-----------------------------------------------------
-----------------------7--6--5----3--------------------------2--------
-----------------------7--6--5----3--------0-0-0-2--2---2--3---3---3--

REPEAT 1st half of CHORUS

REPEAT VERSE

REPEAT CHORUS twice

MIDDLE SECTION

Let Ring
----------------------------------------------------------------------
----------------------------------------------------------------------
------3----------3--------3--------3-----------3-------------------3--
---3----------2-----------------5-------------------------3-----3-----
1-------------------------------------3--4--5-----6----0-----1--------
-----------2-----------3-----5----------------------------------------


----------------------------------------------------------------------
----------------------------------------------------------------------
-------------3--------6-----------------------------------------------
---3------3-----------5-----------------------------------------------
----------------------7-----------------------------------------------
2------3--------------------------------------------------------------

REPEAT INTRO

REPEAT VERSE

OUTRO PART 1 (play 1 1/2 times)

----------------------------------------------------------------------
6--------------6-----------------1------------------------------------
5--------------3-----------------0------------------------------------
3--------------3-----------------2------------------------------------
---5--5--4--3-----5--7--5--3--0-----7--6--5--3-----------------2------
---5--5--4--3-----5--7--5--3--0-----7--6--5--3--0-0-0-2--2-2-3----3-3-

OUTRO PART 2 (play until end)

----------------------------------------------------------------------
----------------------------------------------------------------------
----------------------------------------------------------------------
----------------------------------------------------------------------
---------2-----------------2-----------------2-----------------2------
0--2--3-----3--2--0--2--3-----3--2--0--2--3-----3--2--0--2--3-----3--2

----------------------------------------------------------------------
----------------------------------------------------------------------
----------------------------------------------------------------------
----------------------------------------------------------------------
---------2-----2------------------------------------------------------
0--2--3-----3-----3--2------------------------------------------------



     
Добавлено: 24.08.2013
Другие материалы по этой песне:
  • Аккорды и текст

Страница создана 17.03.2012
http://primanota.ru/kings-x/dont-care-chords.htm
Привет, Гость.
Предлагаем пройти революционный курс по гитаре.
Подарок от PrimaNota.Ru, забирай!