PrimaNota.ru - самый крупный в мире бесплатный архив песенных текстов, аккордов, табулатур и нот


Kings X - Black The Sky - текст песни, таба, видео

Регистрация Запомнить меня
Войти через:  Facebook Google Twitter Vk Yandex Mail.ru

Kings X - Black The Sky - текст песни, таба, видео

Печатать
Просмотров: 140
		   "BLACK THE SKY" -Dogman

as performed by:
KING'S X
Doug Pinnick     Ty Tabor    Jerry Gaskill

Tabulature by Joe King 
E-Mail: 75322.2466@compuserve.com

Tune as in dropped D, but tune all strings down 3 half steps.  Huh?
(you'll figure it out)

H=Hammer  P=Pull  /(nn)=Bend(fret)  /\/\/\=vibrato  /=slide up  \=slide down

INTRO

C# -------------------------------------------------------------------------
G# -----------X--X--------------------------------X--X----------------------
E  -----------X--X-----------5--------------------X--X-----------5----------
B  -----------X--X-----------3--------------------X--X-----------3----------
F# -----------------3--5-----------3-H5-----------------3--5-----------3-H5-
B  --3--3--0--------------0-----0--------3--3--0--------------0-----0-------


----------------------------------------------------------------------------
---------X--X--------------------------------X--X---------------------------
---------X--X-----------5--------------------X--X--------------5-----4------
---------X--X-----------3--------------------X--X--------3--4-----4---------
---------------3--5-----------3-H5-----------------3--5---------------------
3--3--0--------------0-----0--------3--3--0---------------------------------

VERSE (play 2x)
        /\/\/\                            /\/\/\
----------------------------------------------------------------------------
---6--6---------6--------------------6--6--------6--------------------------
---5--5---------5--------5-----4-----5--5--------5--------5-----4-----------
---3--3---------3--3--4-----4--------3--3--------3--3--4-----4--------------
----------------------------------------------------------------------------
0---------------------------------0-----------------------------------------

        /\/\/\
-----------------------------------------------------------|
---6--6---------6--------------------6--6--6--6------------|
---5--5---------5--------5-----4-----5--5--5--5------------|
---3--3---------3--3--4-----4--------3--3--3--3------------|
---------------------------------------------------7--5----|
0---------------------------------0----------------7--5----|

BRIDGE

----------------------------------------------------------------------------
----------------------------------------------------------------------------
----------------------------------------------------------------------------
----------------------------------------------------------------------------
0----0--3--0----1--2--3----0----0--3--0----1--2--3----0----0--3--0----1--2--
0----0--3--0----1--2--3----0----0--3--0----1--2--3----0----0--3--0----1--2--


--------------------------------|
--------------------------------|
--------------------------------|
--------------------------------|
3----2----2--3----3-----3--H5---|
3----2----2--3-------3----------|

CHORUS 

-----8--8---8--8--8--8---------8--8--8----8--8--8---------8--8---8--8--8--8-
-----7--7---7--7--7--7---------6--6--6----6--6--6---------7--7---7--7--7--7-
-----5--5---5--5--5------------5--5--5----5--5------------5--5---5--5--5----
-----7--7---7--7--7-------5----5-----5----5--5------------7--7---7--7--7----
----------------------------------------------------------------------------
0----------------------------------------------------0----------------------


10------10------13----13----13--13--13--13----------------------------------
9-------9-------12----12----12--12--12--12----------------------------------
7-------7-------10----10----10--10--10--10----------------------------------
9-------9-------12----12----12--12--12--12----------------------------------
----------------------------------------------------------------------------
----------------------------------------------------------------------------


-----8--8---8--8--8--8---------8--8--8----8--7--7--8------8--8---8--8--8--8-
-----7--7---7--7--7--7---------6--6--6----6--6--6--6------7--7---7--7--7--7-
-----5--5---5--5--5------------5--5--5----5--5--5---------5--5---5--5--5----
-----7--7---7--7--7-------5----5-----5----5--5------------7--7---7--7--7----
----------------------------------------------------------------------------
0----------------------------------------------------0----------------------

                                                   After 1st CHORUS only
10------10------13----13----13--13--13--13----|-----------------------------
9-------9-------12----12----12--12--12--12----|-----------------------------
7-------7-------10----10----10--10--10--10----|----------5-----4------------
9-------9-------12----12----12--12--12--12----|----3--4-----4---------------
----------------------------------------------|-----------------------------
----------------------------------------------|-----------------------------

REPEAT VERSE 1x

REPEAT BRIDGE 1x

REPEAT CHORUS 1x

SOLO  (with Wah-Wah)
              /\/\/\                      /\/\/\
---------------------------------------------------------------------------
-------------------------------------------------12/(13)--10------10--12---
---12/(14)--10----------------------10------------------------12-----------
--------------------12--10------10------12---------------------------------
\---------------------------12---------------------------------------------
\--------------------------------------------------------------------------

  /\/\  /\/\/\
---------------------------------------------------------------------------
---------------------------10--------------------------10------------------
12----10----------10--H12------13--P12--P10--H12--H13------13--P12--P10----
--------------12-----------------------------------------------------------
---------------------------------------------------------------------------
---------------------------------------------------------------------------


---------------------------------------------------------------------------
----------10--H12--H13--P12--P10------10-----------------------------------
H12--H13--------------------------13------13--P12--H13--P12--P10------10---
------------------------------------------------------------------12-------
---------------------------------------------------------------------------
---------------------------------------------------------------------------


---------------------------------------------------------------------------
---------------------------------------------------------------------------
H11--H12--P11--P10------10-------------------------------------------------
--------------------12------12--11--12--11--10------10--H11--H12--P11--P10-
------------------------------------------------12-------------------------
---------------------------------------------------------------------------

                              /\/\/\                                \/\
---------------------------------------------------------------------------
---------------------------------------------------------------------------
------------------------------------------------------14/(17)\--10------10-
----10---------------------------------3--------X-X-----------------12-----
12------12--11--12--11--10--\8------5-----5--3--X-X------------------------
---------------------------------------------------------------------------

                                /\/\           /\/\               /\/\
-----------------------------------------15--------------------------------
--------13-----------18--18/(20)-----18------18----15------17/(18)---------
12/(14)------17/(19)-----------------------------------17------------------
---------------------------------------------------------------------------
---------------------------------------------------------------------------
---------------------------------------------------------------------------

                        /\/\/\                                  /\/\
---------------------------------------------------------------------------
15-------------------------------------------------------20/(22)----18--H20
----17--14/(17)--17/(19)---------------17--17--H19--P17--------------------
------------------------------17--H19--------------------------------------
---------------------------------------------------------------------------
---------------------------------------------------------------------------

    /\/\/\                /\/\/\/\
---------------------------------------------------------------------------
(20)------18--H20--P18-----------------------------------------------------
------------------------19-------------------------------------------------
---------------------------------------------------------------------------
---------------------------------------------------------------------------
---------------------------------------------------------------------------

3RD VERSE (play 2x)

----------------------------------------------------------------------------
-----------X--X--------------------------------X--X-------------------------
-----------X--X-----------5--------------------X--X-----------5-------------
-----------X--X-----------3--------------------X--X-----------3-------------
-----------------3--5-----------3-H5-----------------3--5-----------3-H5----
--3--3--0--------------0-----0--------3--3--0--------------0-----0----------


----------------------------------------------------------------------------
---------X--X--------------------------------X--X---------------------------
---------X--X-----------5--------------------X--X---------------------------
---------X--X-----------3--------------------X--X-----------10--10--9-------
---------------3--5-----------3-H5-----------------3--5-----7---7---5-------
3--3--0--------------0-----0--------3--3--0-----------------7---7---5-------

REPEAT BRIDGE

REPEAT CHORUS

REPEAT BRIDGE 3x
     
Добавлено: 25.09.2013
Другие материалы по этой песне:
  • Аккорды и текст

Страница создана 22.06.2012
http://primanota.ru/kings-x/black-the-sky-chords.htm
Привет, Гость.
Предлагаем пройти революционный курс по гитаре.
Подарок от PrimaNota.Ru, забирай!