PrimaNota.ru - самый крупный в мире бесплатный архив песенных текстов, аккордов, табулатур и нот


Kingdoms - Telegraph Static - таба, видео

Регистрация Запомнить меня
Войти через:  Facebook Google Twitter Vk Yandex Mail.ru

Kingdoms - Telegraph Static - таба, видео

Печатать
Просмотров: 87
                            Telegraph Static                                 
                                Kingdoms

Drop C#


Guitar 1



   PM       PM       PM       PM       PM              
   E  E  E  E  E  E  E  E     E  E  E  E  E  E  E  E   
|--------------------------|--------------------------|
|-----------------------4--|--------------------------|
|-----------------------7--|--------------8--8--8--8--|
|--------------------------|--------------7--7--7--7--|
|--------------------------|--------------6--6--6--6--|
|--0--3--2--0--1--4--0-----|--0--3--2--0--------------|


                       PM PM          PM PM      PM PM      PM PM  
  S S S S S S S S Q    S  S  E     E  S  S  Q    S  S  Q    S  S   
--------------------------------|---------------------------------|
--------------------------------|---------------------------------|
--------------------------------|---------------------------------|
--x-x-x-x-x-x-x-x---------------|---------------------------------|
--x-x-x-x-x-x-x-x-0----------0--|--L--------0----------0----------|
--x-x-x-x-x-x-x-x-1----0--0--1--|--L--0--0--1----0--0--1----0--0--|


  PM       PM       PM       PM       PM              
  E  E  E  E  E  E  E  E     E  E  E  E  E  E  E  E   
--------------------------|--------------------------|
-----------------------4--|--------------------------|
-----------------------7--|--------------7--7--7--7--|
--------------------------|--------------6--6--6--6--|
--------------------------|--------------5--5--5--5--|
--0--3--2--0--1--4--0-----|--0--3--2--0--------------|


                       PM PM          PM PM      PM PM      PM PM  
  S S S S S S S S Q    S  S  E     E  S  S  Q    S  S  Q    S  S   
--------------------------------|---------------------------------|
--------------------------------|---------------------------------|
--------------------------------|---------------------------------|
--x-x-x-x-x-x-x-x---------------|---------------------------------|
--x-x-x-x-x-x-x-x-1----------1--|--L--------0----------0----------|
--x-x-x-x-x-x-x-x-0----0--0--0--|--L--0--0--0----0--0--0----0--0--|


  E  E  E  E  E  E  E  E     E  E  E  E  E  E  E  E   
--------------------------|--------------------------|
--------------------------|--------------------------|
--8--8--8-----8--8-----8--|--8--8-----8-----8--8--8--|
--7--7--7-----7--7-----7--|--7--7-----7-----7--7--7--|
--6--6--6-----6--6-----6--|--6--6-----6-----6--6--6--|
--------------------------|--------------------------|


  PM       PM       PM    PM       PM  
  E  E  E  E  E  E  E  E  E  E  E  E   
--------------------------------------|
-----------------------4--------------|
-----------------------7--------------|
--------------------------------------|
--------------------------------------|
--0--3--2--0--1--4--0-----0--3--2--0--|


       PM PM      PM PM      PM PM      PM PM  
  Q    S  S  Q    S  S  Q    S  S  Q    S  S   
----------------------------------------------|
----------------------------------------------|
----------------------------------------------|
----------------------------------------------|
--0----------0----------0----------0----------|
--1----0--0--1----0--0--1----0--0--1----0--0--|


  PM       PM       PM    PM       PM  
  E  E  E  E  E  E  E  E  E  E  E  E   
--------------------------------------|
-----------------------4--------------|
-----------------------7--------------|
--------------------------------------|
--------------------------------------|
--0--3--2--0--1--4--0-----0--3--2--0--|


       PM PM      PM PM      PM PM      PM PM  
  Q    S  S  Q    S  S  Q    S  S  Q    S  S   
----------------------------------------------|
----------------------------------------------|
----------------------------------------------|
----------------------------------------------|
--1----------1----------0----------0----------|
--0----0--0--0----0--0--0----0--0--0----0--0--|


  PM       PM       PM    PM       PM  
  E  E  E  E  E  E  E  E  E  E  E  E   
--------------------------------------|
-----------------------4--------------|
-----------------------7--------------|
--------------------------------------|
--------------------------------------|
--0--3--2--0--1--4--0-----0--3--2--0--|


       PM PM      PM PM      PM PM      PM PM  
  Q    S  S  Q    S  S  Q    S  S  Q    S  S   
----------------------------------------------|
----------------------------------------------|
----------------------------------------------|
----------------------------------------------|
--0----------0----------0----------0----------|
--1----0--0--1----0--0--1----0--0--1----0--0--|


       PM PM      PM PM      PM PM      PM PM  
  Q    S  S  Q    S  S  Q    S  S  Q    S  S   
----------------------------------------------|
----------------------------------------------|
----------------------------------------------|
----------------------------------------------|
--1----------1----------0----------0----------|
--0----0--0--0----0--0--0----0--0--0----0--0--|


       PM PM      PM PM      PM PM      PM PM  
  Q    S  S  Q    S  S  Q    S  S  Q    S  S   
----------------------------------------------|
----------------------------------------------|
----------------------------------------------|
----------------------------------------------|
--0----------0----------0----------0----------|
--1----0--0--1----0--0--1----0--0--1----0--0--|


       PM PM      PM PM      PM PM      PM PM  
  Q    S  S  Q    S  S  Q    S  S  Q    S  S   
----------------------------------------------|
----------------------------------------------|
----------------------------------------------|
----------------------------------------------|
--1----------1----------0----------0----------|
--0----0--0--0----0--0--0----0--0--0----0--0--|


  PM       PM       PM    PM       PM  
  E  E  E  E  E  E  E  E  E  E  E  E   
--------------------------------------|
-----------------------4--------------|
-----------------------7--------------|
--------------------------------------|
--------------------------------------|
--0--3--2--0--1--4--0-----0--3--2--0--|


  E  E  E  E  E  E  E  E  E  E  E  E  E  E  E  E   
--------------------------------------------------|
--------------------------------------------------|
--8--8--8-----8--8-----8--8--8-----8-----8--8--8--|
--7--7--7-----7--7-----7--7--7-----7-----7--7--7--|
--6--6--6-----6--6-----6--6--6-----6-----6--6--6--|
--------------------------------------------------|


  E  E  E  E  E  E  E  E  E  E  E  E  E  E  E  E   
--------------------------------------------------|
--------------------------------------------------|
--8-----8--8--8-----8--8-----8--8--8-----8--8--8--|
--7-----7--7--7-----7--7-----7--7--7-----7--7--7--|
--6-----6--6--6-----6--6-----6--6--6-----6--6--6--|
--------------------------------------------------|


  E  E  E  E  E  E  E  E  E  E  E  E  E  E  E  E   
--------------------------------------------------|
--------------------------------------------------|
--7--7--7-----7--7-----7--7--7-----7-----7--7--7--|
--6--6--6-----6--6-----6--6--6-----6-----6--6--6--|
--5--5--5-----5--5-----5--5--5-----5-----5--5--5--|
--------------------------------------------------|


  E  E  E  E  E  E  E  E  E  E  E  E  E  E  E  E   
--------------------------------------------------|
--------------------------------------------------|
--7-----7--7--7-----7-----7--7-----7-----7--7--7--|
--6-----6--6--6-----6-----6--6-----6-----6--6--6--|
--5-----5--5--5-----5-----5--5-----5-----5--5--5--|
--------------------------------------------------|


  E  E  E  E  E  E  E  E  E  E  E  E  E  E  E  E   
--------------------------------------------------|
--------------------------------------------------|
--8--8--8-----8--8-----8--8--8-----8-----8--8--8--|
--7--7--7-----7--7-----7--7--7-----7-----7--7--7--|
--6--6--6-----6--6-----6--6--6-----6-----6--6--6--|
--------------------------------------------------|


  E  E  E  E  E  E  E  E  E  E  E  E  E  E  E  E   
--------------------------------------------------|
--------------------------------------------------|
--8-----8--8--8-----8--8-----8--8--8-----8--8--8--|
--7-----7--7--7-----7--7-----7--7--7-----7--7--7--|
--6-----6--6--6-----6--6-----6--6--6-----6--6--6--|
--------------------------------------------------|


  E  E  E  E  E  E  E  E  E  E  E  E  E  E  E  E   
--------------------------------------------------|
--4--4--4--4--4--4--4--4--4--4--4--4--4--4--4--4--|
--7--7--7--7--7--7--7--7--7--7--7--7--7--7--7--7--|
--0--0--0--0--0--0--0--0--0--0--0--0--0--0--0--0--|
--------------------------------------------------|
--------------------------------------------------|


  E  E  E  E  E  E  E  E  E  E  E  E  E  E  E  E   
--------------------------------------------------|
--4--4--4--4--4--4--4--4--4--4--4--4--4--4--4--4--|
--7--7--7--7--7--7--7--7--7--7--7--7--7--7--7--7--|
--0--0--0--0--0--0--0--0--0--0--0--0--0--0--0--0--|
--------------------------------------------------|
--------------------------------------------------|


  PM       PM       PM    PM       PM                
  E  E  E  E  E  E  E  E  E  E  E  E  E   E   E  E   
----------------------------------------------------|
-----------------------4----------------------------|
-----------------------7--------------7s--8s--7--L--|
----------------------------------------------------|
--------------------------------------5s--6s--5--L--|
--0--3--2--0--1--4--0-----0--3--2--0----------------|


  PM PM PM             PM PM            PM PM              
                             |---3---|                     
  E  E  E   E   E   E  E  E  E   E   E  E  E  E  E  E  E   
----------------------------------------------------------|
----------------------------------------------------------|
-----------12--12--12--------7s--8s--7--------------------|
--0--0--0--10--10--10--0--0-------------0--0--5--5--5--5--|
--0--0--0---8---8---8--0--0--5s--6s--5--0--0--3--3--3--3--|
--0--0--0--------------0--0-------------0--0--3--3--3--3--|


  PM PM PM             PM PM                                  
  E  E  E   E   E   E  E  E   E   E   E   E   E   E   E   E   
-------------------------------------------------------------|
-------------------------------------------------------------|
-----------12--12--12------------------------12--14--12------|
--0--0--0--10--10--10--0--0----------14--15--------------15--|
--0--0--0---8---8---8--0--0--10--12--------------------------|
--0--0--0--------------0--0----------------------------------|


  E  E  E   E   E   E  E  E   E   E   E   E   E   E   E   E   
-------------------------------------------------------------|
-------------------------------------------------------------|
-----------12--12--12--------14--14--14--12--12--12--10--10--|
--7--7-----10--10--10--7--7----------------------------------|
--7--7------8---8---8--7--7--12--12--12--10--10--10---8---8--|
--7--7-----------------7--7----------------------------------|


  E  E  E  E  E  E  E  E  E  E  E  E  E  E  E  E   
--------------------------------------------------|
--------------------------------------------------|
--9--9--9--9--9--9--9--9--9--9--9--9--9--9--9--9--|
--------------------------------------------------|
--7--7--7--7--7--7--7--7--7--7--7--7--7--7--7--7--|
--------------------------------------------------|


                             |---3---|                     
  E  E  E   E   E   E  E  E  E   E   E  E  E  E  E  E  E   
----------------------------------------------------------|
----------------------------------------------------------|
-----------12--12--12--------7s--8s--7--------------------|
--0--0--0--10--10--10--0--0-------------0--0--5--5--5--5--|
--0--0--0---8---8---8--0--0--5s--6s--5--0--0--3--3--3--3--|
--0--0--0--------------0--0-------------0--0--3--3--3--3--|


  E  E  E   E   E   E  E  E   E   E   E   E   E   E   E   E   
-------------------------------------------------------------|
-------------------------------------------------------------|
-----------12--12--12------------------------12--14--12------|
--0--0--0--10--10--10--0--0----------14--15--------------15--|
--0--0--0---8---8---8--0--0--10--12--------------------------|
--0--0--0--------------0--0----------------------------------|


  E  E  E   E   E   E  E  E   E   E   E   E   E   E   E   E   
-------------------------------------------------------------|
-------------------------------------------------------------|
-----------12--12--12--------14--14--14--12--12--12--10--10--|
--7--7-----10--10--10--7--7----------------------------------|
--7--7------8---8---8--7--7--12--12--12--10--10--10---8---8--|
--7--7-----------------7--7----------------------------------|


  E  E  E  E  E  E  E  E      E   E   E   E   E   E   E   E   
--------------------------|----------------------------------|
--------------------------|----------------------------------|
--9--9--9--9--9--9--9--9--|------------------12--14--12------|
--------------------------|----------14--15--------------15--|
--7--7--7--7--7--7--7--7--|--10--12--------------------------|
--------------------------|----------------------------------|


   E   E   E   E   E   E   E   E   
--13--12--------------------------|
----------13----------------------|
--------------14--12--14--12------|
------------------------------15--|
----------------------------------|
----------------------------------|


  E    E    E  E    E    E  E   E    E  E   E    E   
----------------------------------------------------|
----------------------------------------------------|
----------------------------------------------------|
--7h--10h--12--7h--10h--12--5h--7h--10--5h--7h--10--|
----------------------------------------------------|
----------------------------------------------------|


  E   E   E  E   E    E  E    E    E  E    E   E   
--------------------------------------------------|
--------------------------------------------------|
--------------------------------------------------|
--2h--3h--7--5h--7h--10--7h--10h--12--7h--10p--7--|
--------------------------------------------------|
--------------------------------------------------|


   E    E   E    E    E    E   E    E   E    E   E    E   
---------------------------------------------------------|
---------------------------------------------------------|
-----------14p--10h--12p--10-----------------------------|
--12p--10---------------------12p--10--15p--10--14p--10--|
---------------------------------------------------------|
---------------------------------------------------------|


   E    E   E    E   E    E   E    E   E    E   E    E   
--------------------------------------------------------|
-----------------------------13p--10--------------------|
-----------14p--10--12p--10-----------14p--10--12p--10--|
--12p--10-----------------------------------------------|
--------------------------------------------------------|
--------------------------------------------------------|


  E    E    E  E    E    E  E   E    E  E   E    E   
----------------------------------------------------|
----------------------------------------------------|
----------------------------------------------------|
--7h--10h--12--7h--10h--12--5h--7h--10--5h--7h--10--|
----------------------------------------------------|
----------------------------------------------------|


  E   E   E  E   E    E  E    E    E  E    E   E   
--------------------------------------------------|
--------------------------------------------------|
--------------------------------------------------|
--2h--3h--7--5h--7h--10--7h--10h--12--7h--10p--7--|
--------------------------------------------------|
--------------------------------------------------|


   E    E   E   E   E    E    E   E   E   E    E    E   
-------------------12h--13p--12------------------------|
---------------13----------------13--------------------|
-----------14------------------------14----------------|
--12h--15--------------------------------15p--12h--15--|
-------------------------------------------------------|
-------------------------------------------------------|


   E   E   E    E    E   E   E   E    E    E   E   E   
----------12h--13p--12--------------------------------|
------13----------------13----------------------------|
--14------------------------14----------------14\--L--|
--------------------------------15p--12h--15----------|
------------------------------------------------------|
------------------------------------------------------|


  E    E    E  E    E    E  E   E    E  E   E    E   
----------------------------------------------------|
----------------------------------------------------|
----------------------------------------------------|
--7h--10h--12--7h--10h--12--5h--7h--10--5h--7h--10--|
----------------------------------------------------|
----------------------------------------------------|


  E   E   E  E   E    E  E    E    E  E    E   E   
--------------------------------------------------|
--------------------------------------------------|
--------------------------------------------------|
--2h--3h--7--5h--7h--10--7h--10h--12--7h--10p--7--|
--------------------------------------------------|
--------------------------------------------------|


   E    E   E    E    E    E   E    E   E    E   E    E   
---------------------------------------------------------|
---------------------------------------------------------|
-----------14p--10h--12p--10-----------------------------|
--12p--10---------------------12p--10--15p--10--14p--10--|
---------------------------------------------------------|
---------------------------------------------------------|


   E    E   E    E   E    E   E    E   E    E   E    E   
--------------------------------------------------------|
-----------------------------13p--10--------------------|
-----------14p--10--12p--10-----------14p--10--12p--10--|
--12p--10-----------------------------------------------|
--------------------------------------------------------|
--------------------------------------------------------|


   E  E  E  E  E  E   E   E  E   E  E  E   
------------------------------------------|
---------------------17b--L--L------------|
--14--L--L--L--L--L-------------14--L--L--|
------------------------------------------|
------------------------------------------|
------------------------------------------|


  E  E  E   E   E   E  E  E  E  E  E  E   
-----------------------------------------|
-----------------------------------------|
--9--9--9--10--10--10--9--9--9--7--7--7--|
-----------------------------------------|
--7--7--7---8---8---8--7--7--7--5--5--5--|
-----------------------------------------|


  PM PM PM PM PM PM PM PM PM PM PM PM  
  E  E  E  E  E  E  E  E  E  E  E  E   
--------------------------------------|
--------------------------------------|
--------------------------------------|
--0--0--0--0--0--0--0--0--0--0--0--0--|
--0--0--0--0--0--0--0--0--0--0--0--0--|
--0--0--0--0--0--0--0--0--0--0--0--0--|


       PM PM      PM PM      PM PM      PM PM  
  Q    S  S  Q    S  S  Q    S  S  Q    S  S   
----------------------------------------------|
----------------------------------------------|
--7----------7----------7----------7----------|
--6----------6----------6----------6----------|
--5----------5----------5----------5----------|
-------0--0-------0--0-------0--0-------0--0--|


       PM PM      PM PM      PM PM      PM PM  
  Q    S  S  Q    S  S  Q    S  S  Q    S  S   
----------------------------------------------|
----------------------------------------------|
----------------------------------------------|
----------------------------------------------|
--0----------0----------0----------0----------|
--1----0--0--1----0--0--1----0--0--1----0--0--|


       PM PM      PM PM      PM PM      PM PM  
  Q    S  S  Q    S  S  Q    S  S  Q    S  S   
----------------------------------------------|
----------------------------------------------|
----------------------------------------------|
----------------------------------------------|
--1----------1----------0----------0----------|
--0----0--0--0----0--0--0----0--0--0----0--0--|


       PM PM      PM PM      PM PM      PM PM  
  Q    S  S  Q    S  S  Q    S  S  Q    S  S   
----------------------------------------------|
----------------------------------------------|
----------------------------------------------|
----------------------------------------------|
--0----------0----------0----------0----------|
--1----0--0--1----0--0--1----0--0--1----0--0--|


       PM PM      PM PM      PM PM      PM PM  
  Q    S  S  Q    S  S  Q    S  S  Q    S  S   
----------------------------------------------|
----------------------------------------------|
----------------------------------------------|
----------------------------------------------|
--1----------1----------0----------0----------|
--0----0--0--0----0--0--0----0--0--0----0--0--|


  E  E  E  E  E  E  E  E  E  E  E  E  E  E  E  E   
--------------------------------------------------|
--------------------------------------------------|
--8--8--8-----8--8-----8--8--8-----8--------------|
--7--7--7-----7--7-----7--7--7-----7--------------|
--6--6--6-----6--6-----6--6--6-----6--------------|
--------------------------------------------------|


  E  E  E  E  E  E  E  E  E  E  E  E  E  E  E  E   
--------------------------------------------------|
--------------------------------------------------|
--------------------------------------------------|
--0--0--0-----0--0-----0--0--0-----0-----0--0--0--|
--0--0--0-----0--0-----0--0--0-----0-----0--0--0--|
--0--0--0-----0--0-----0--0--0-----0-----0--0--0--|


  E  E  E  E  E  E  E  E  E  E  E  E  E  E  E  E   
--------------------------------------------------|
--------------------------------------------------|
--------------------------------------------------|
--0-----0--0--0-----0-----0--0-----0-----0--0--0--|
--0-----0--0--0-----0-----0--0-----0-----0--0--0--|
--0-----0--0--0-----0-----0--0-----0-----0--0--0--|


   E   E   E   E   E   E   E   E   E   E   E   E   E   E   E   E   
------------------------------------------------------------------|
--11--11--11--11--11--11--11--11--11--11--11--11--11--11--11--11--|
--14--14--14--14--14--14--14--14--14--14--14--14--14--14--14--14--|
---0---0---0---0---0---0---0---0---0---0---0---0---0---0---0---0--|
------------------------------------------------------------------|
------------------------------------------------------------------|


  PM PM PM            PM PM       PM    PM           
  E  E  E   E   E  E  E  E  E  E  E  E  E  E  E  E   
----------------------------------------------------|
-----------11\--L--L-----------------------4--4--4--|
-----------14\--L--L-----------------------7--7--7--|
--0--0--0-------------0--0--------------------------|
--0--0--0-------------0--0--------------------------|
--0--0--0-------------0--0--3--2--0--1--0-----------|


  PM PM PM PM PM         PM       PM    PM           
  E  E  E  E  E   E   E  E  E  E  E  E  E  E  E  E   
----------------------------------------------------|
-----------------11\--L-----------------------------|
-----------------14\--L-----------------------------|
--0--0--0--0--0-------------------------------------|
--0--0--0--0--0----------------------------3--1--0--|
--0--0--0--0--0----------0--3--2--0--1--0-----------|


  PM PM PM            PM PM       PM    PM           
  E  E  E   E   E  E  E  E  E  E  E  E  E  E  E  E   
----------------------------------------------------|
-----------11\--L--L-----------------------4--4--4--|
-----------14\--L--L-----------------------7--7--7--|
--0--0--0-------------0--0--------------------------|
--0--0--0-------------0--0--------------------------|
--0--0--0-------------0--0--3--2--0--1--0-----------|


  PM PM PM PM PM         PM       PM    PM           
  E  E  E  E  E   E   E  E  E  E  E  E  E  E  E  E   
----------------------------------------------------|
-----------------11\--L-----------------------------|
-----------------14\--L-----------------------------|
--0--0--0--0--0-------------------------------------|
--0--0--0--0--0----------------------------3--1--0--|
--0--0--0--0--0----------0--3--2--0--1--0-----------|


                             |---3---|                     
  E  E  E   E   E   E  E  E  E   E   E  E  E  E  E  E  E   
----------------------------------------------------------|
----------------------------------------------------------|
-----------12--12--12--------7s--8s--7--------------------|
--0--0--0--10--10--10--0--0-------------0--0--5--5--5--5--|
--0--0--0---8---8---8--0--0--5s--6s--5--0--0--3--3--3--3--|
--0--0--0--------------0--0-------------0--0--3--3--3--3--|


  PM PM PM            PM PM       PM    PM           
  E  E  E   E   E  E  E  E  E  E  E  E  E  E  E  E   
----------------------------------------------------|
-----------11\--L--L-----------------------4--4--4--|
-----------14\--L--L-----------------------7--7--7--|
--0--0--0-------------0--0--------------------------|
--0--0--0-------------0--0--------------------------|
--0--0--0-------------0--0--3--2--0--1--0-----------|


  PM PM PM PM PM         PM       PM    PM           
  E  E  E  E  E   E   E  E  E  E  E  E  E  E  E  E   
----------------------------------------------------|
-----------------11\--L-----------------------------|
-----------------14\--L-----------------------------|
--0--0--0--0--0-------------------------------------|
--0--0--0--0--0----------------------------3--1--0--|
--0--0--0--0--0----------0--3--2--0--1--0-----------|


  PM PM PM            PM PM       PM    PM           
  E  E  E   E   E  E  E  E  E  E  E  E  E  E  E  E   
----------------------------------------------------|
-----------11\--L--L-----------------------4--4--4--|
-----------14\--L--L-----------------------7--7--7--|
--0--0--0-------------0--0--------------------------|
--0--0--0-------------0--0--------------------------|
--0--0--0-------------0--0--3--2--0--1--0-----------|


  PM PM PM PM PM         PM       PM    PM           
  E  E  E  E  E   E   E  E  E  E  E  E  E  E  E  E   
----------------------------------------------------|
-----------------11\--L-----------------------------|
-----------------14\--L-----------------------------|
--0--0--0--0--0-------------------------------------|
--0--0--0--0--0----------------------------3--1--0--|
--0--0--0--0--0----------0--3--2--0--1--0-----------|


                             |---3---|                     
  E  E  E   E   E   E  E  E  E   E   E  E  E  E  E  E  E   
----------------------------------------------------------|
----------------------------------------------------------|
-----------12--12--12--------7s--8s--7--------------------|
--0--0--0--10--10--10--0--0-------------0--0--5--5--5--5--|
--0--0--0---8---8---8--0--0--5s--6s--5--0--0--3--3--3--3--|
--0--0--0--------------0--0-------------0--0--3--3--3--3--|


                             |---3---|                     
  E  E  E   E   E   E  E  E  E   E   E  E  E  E  E  E  E   
----------------------------------------------------------|
----------------------------------------------------------|
-----------12--12--12--------7s--8s--7--------------------|
--0--0--0--10--10--10--0--0-------------0--0--5--5--5--5--|
--0--0--0---8---8---8--0--0--5s--6s--5--0--0--3--3--3--3--|
--0--0--0--------------0--0-------------0--0--3--3--3--3--|


  E  E  E   E   E   E  E  E   E   E   E   E   E   E   E   E   
-------------------------------------------------------------|
-------------------------------------------------------------|
-----------12--12--12--------14--14--14--12--12--12--10--10--|
--7--7-----10--10--10--7--7----------------------------------|
--7--7------8---8---8--7--7--12--12--12--10--10--10---8---8--|
--7--7-----------------7--7----------------------------------|


  E  E  E  E  E  E  E  E  E  E  E  E  E  E  E  E   
--------------------------------------------------|
--------------------------------------------------|
--9--9--9--9--9--9--9--9--9--9--9--9--9--9--9--9--|
--------------------------------------------------|
--7--7--7--7--7--7--7--7--7--7--7--7--7--7--7--7--|
--------------------------------------------------|


                             |---3---|                     
  E  E  E   E   E   E  E  E  E   E   E  E  E  E  E  E  E   
----------------------------------------------------------|
----------------------------------------------------------|
-----------12--12--12--------7s--8s--7--------------------|
--0--0--0--10--10--10--0--0-------------0--0--5--5--5--5--|
--0--0--0---8---8---8--0--0--5s--6s--5--0--0--3--3--3--3--|
--0--0--0--------------0--0-------------0--0--3--3--3--3--|


  E  E  E   E   E   E  E  E   E   E   E   E   E   E   E   E   
-------------------------------------------------------------|
-------------------------------------------------------------|
-----------12--12--12------------------------12--14--12------|
--0--0--0--10--10--10--0--0----------14--15--------------15--|
--0--0--0---8---8---8--0--0--10--12--------------------------|
--0--0--0--------------0--0----------------------------------|


  E  E  E   E   E   E  E  E   E   E   E   E   E   E   E   E   
-------------------------------------------------------------|
-------------------------------------------------------------|
-----------12--12--12--------14--14--14--12--12--12--10--10--|
--7--7-----10--10--10--7--7----------------------------------|
--7--7------8---8---8--7--7--12--12--12--10--10--10---8---8--|
--7--7-----------------7--7----------------------------------|


  E  E  E  E  E  E  E  E      E   E   E   E   E   E   E   E   
--------------------------|----------------------------------|
--------------------------|----------------------------------|
--9--9--9--9--9--9--9--9--|------------------12--14--12------|
--------------------------|----------14--15--------------15--|
--7--7--7--7--7--7--7--7--|--10--12--------------------------|
--------------------------|----------------------------------|


   E   E   E   E   E   E   E   E   
--13--12--------------------------|
----------13----------------------|
--------------14--12--14--12------|
------------------------------15--|
----------------------------------|
----------------------------------|


  E   E   E  E    E    E  E    E    E  E   E   E   
--------------------------------------------------|
--------------------------------------------------|
--------------------------------------------------|
-------------0h--10h--12---------------0h--7h--8--|
--0h--7h--8---------------0h--10h--12-------------|
--------------------------------------------------|


  E    E    E  E    E    E  E   E    E  E   E    E   
----------------------------------------------------|
----------------------------------------------------|
----------------------------------------------------|
--7h--10h--12--7h--10h--12--5h--7h--10--5h--7h--10--|
----------------------------------------------------|
----------------------------------------------------|


  E   E   E  E   E    E  E    E    E  E    E   E   
--------------------------------------------------|
--------------------------------------------------|
--------------------------------------------------|
--2h--3h--7--5h--7h--10--7h--10h--12--7h--10p--7--|
--------------------------------------------------|
--------------------------------------------------|


   E    E   E    E    E    E   E    E   E    E   E    E   
---------------------------------------------------------|
---------------------------------------------------------|
-----------14p--10h--12p--10-----------------------------|
--12p--10---------------------12p--10--15p--10--14p--10--|
---------------------------------------------------------|
---------------------------------------------------------|


   E    E   E    E   E    E   E    E   E    E   E    E   
--------------------------------------------------------|
-----------------------------13p--10--------------------|
-----------14p--10--12p--10-----------14p--10--12p--10--|
--12p--10-----------------------------------------------|
--------------------------------------------------------|
--------------------------------------------------------|


  E    E    E  E    E    E  E   E    E  E   E    E   
----------------------------------------------------|
----------------------------------------------------|
----------------------------------------------------|
--7h--10h--12--7h--10h--12--5h--7h--10--5h--7h--10--|
----------------------------------------------------|
----------------------------------------------------|


  E   E   E  E   E    E  E    E    E  E    E   E   
--------------------------------------------------|
--------------------------------------------------|
--------------------------------------------------|
--2h--3h--7--5h--7h--10--7h--10h--12--7h--10p--7--|
--------------------------------------------------|
--------------------------------------------------|


   E    E   E   E   E    E    E   E   E   E    E    E   
-------------------12h--13p--12------------------------|
---------------13----------------13--------------------|
-----------14------------------------14----------------|
--12h--15--------------------------------15p--12h--15--|
-------------------------------------------------------|
-------------------------------------------------------|


   E   E   E    E    E   E   E   E    E    E   E   E   
----------12h--13p--12--------------------------------|
------13----------------13----------------------------|
--14------------------------14----------------14\--L--|
--------------------------------15p--12h--15----------|
------------------------------------------------------|
------------------------------------------------------|


  E    E    E  E    E    E  E   E    E  E   E    E   
----------------------------------------------------|
----------------------------------------------------|
----------------------------------------------------|
--7h--10h--12--7h--10h--12--5h--7h--10--5h--7h--10--|
----------------------------------------------------|
----------------------------------------------------|


  E   E   E  E   E    E  E    E    E  E    E   E   
--------------------------------------------------|
--------------------------------------------------|
--------------------------------------------------|
--2h--3h--7--5h--7h--10--7h--10h--12--7h--10p--7--|
--------------------------------------------------|
--------------------------------------------------|


   E    E   E    E    E    E   E    E   E    E   E    E   
---------------------------------------------------------|
---------------------------------------------------------|
-----------14p--10h--12p--10-----------------------------|
--12p--10---------------------12p--10--15p--10--14p--10--|
---------------------------------------------------------|
---------------------------------------------------------|


   E    E   E    E   E    E   E    E   E    E   E    E   
--------------------------------------------------------|
-----------------------------13p--10--------------------|
-----------14p--10--12p--10-----------14p--10--12p--10--|
--12p--10-----------------------------------------------|
--------------------------------------------------------|
--------------------------------------------------------|


   E  E  E  E  E  E   E   E  E   E  E  E   
------------------------------------------|
---------------------17b--L--L------------|
--14--L--L--L--L--L-------------14--L--L--|
------------------------------------------|
------------------------------------------|
------------------------------------------|


  E  E  E   E   E   E  E  E  E  E  E  E   
-----------------------------------------|
-----------------------------------------|
--9--9--9--10--10--10--9--9--9--7--7--7--|
-----------------------------------------|
--7--7--7---8---8---8--7--7--7--5--5--5--|
-----------------------------------------|


  PM PM PM PM PM PM PM PM PM PM PM PM    PM  PM  PM  PM  PM  PM  PM  PM   
  E  E  E  E  E  E  E  E  E  E  E  E     E.  E.  E.  E.  E.  E.  E.  E.   
--------------------------------------|----------------------------------|
--------------------------------------|----------------------------------|
--------------------------------------|----------------------------------|
--------------------------------------|----------------------------------|
--0--0--0--0--0--0--0--0--0--0--0--0--|--0---0---0---0---0---0---0---0---|
--1--1--1--1--1--1--1--1--1--1--1--1--|--1---1---1---1---1---1---1---1---|


  E  E  E  E     E  E  E  E  E  E  E  E  E  E  E  E  E  E  E  E   
--------------|--------------------------------------------------|
--4--4--4--4--|--------------------------------------------------|
--7--7--7--7--|--------------------------------------------------|
--0--0--0--0--|--0--0--0-----0--0-----0--0--0-----0-----0--0--0--|
--------------|--0--0--0-----0--0-----0--0--0-----0-----0--0--0--|
--------------|--0--0--0-----0--0-----0--0--0-----0-----0--0--0--|


  E  E  E  E  E  E  E  E  E  E  E  E  E  E  E  E   
--------------------------------------------------|
--------------------------------------------------|
--------------------------------------------------|
--0-----0--0--0-----0-----0--0-----0-----0--0--0--|
--0-----0--0--0-----0-----0--0-----0-----0--0--0--|
--0-----0--0--0-----0-----0--0-----0-----0--0--0--|


  E  E  E  E  E  E  E  E  E  E  E  E  E  E  E  E   
--------------------------------------------------|
--4--4--4--4--4--4--4--4--4--4--4--4--4--4--4--4--|
--7--7--7--7--7--7--7--7--7--7--7--7--7--7--7--7--|
--0--0--0--0--0--0--0--0--0--0--0--0--0--0--0--0--|
--------------------------------------------------|
--------------------------------------------------|


  E  E  E  E  E  E  E  E  E  E  E  E  E  E  E  E    
--------------------------------------------------||
--4--4--4--4--4--4--4--4--4--4--4--4--4--4--4--4--||
--7--7--7--7--7--7--7--7--7--7--7--7--7--7--7--7--||
--0--0--0--0--0--0--0--0--0--0--0--0--0--0--0--0--||
--------------------------------------------------||
--------------------------------------------------||




Duration Legend
---------------
W - whole
H - half
Q - quarter
E - 8th
S - 16th
T - 32nd
X - 64th
. - note dotted
|-n-|  - n-tuplets


Tablature Legend
----------------
L - tied note
x - dead note
g - grace note
(n) - ghost note
> - accentuded note
NH - natural harmonic
AH - artificial harmonic
TH - tapped harmonic
SH - semi harmonic
PH - pitch harmonic
h - hammer on
p - pull off
b - bend
br - bendRelease
pb - preBend
pbr - preBendRelease
brb - bendReleaseBend
\n/ - tremolo bar dip
\n - tremolo bar dive
-/n - tremolo bar Release up
/n\ - tremolo bar inverted dip
/n - tremolo bar return
-\n - tremolo bar Release down
S - shift slide
s - legato slide
/ -  slide into from below or out of upwards
\ -  slide into from above or out of downwards
~ - vibrato
W - wide vibrato
tr - trill
TP - tremolo picking
T - tapping
S - slap
P - pop
< - fade in
^ - brush up
v - brush down
Добавлено: 13.03.2012
Вам также может быть интересно:
Другие материалы по этой песне:

Страница создана 13.03.2012
http://primanota.ru/kingdoms/telegraph-static-chords.htm
Привет, Гость.
Предлагаем пройти революционный курс по гитаре.
Подарок от PrimaNota.Ru, забирай!