PrimaNota.ru - самый крупный в мире бесплатный архив песенных текстов, аккордов, табулатур и нот


Kingdom Of Sorrow - Behind The Blackest Tears - таба, видео

Регистрация Запомнить меня
Войти через:  Facebook Google Twitter Vk Yandex Mail.ru

Kingdom Of Sorrow - Behind The Blackest Tears - таба, видео

Печатать
Просмотров: 120
-----------------------------------------------------------------------------
                             BEHIND THE BLACKEST TEARS - Kingdom of Sorrow
-----------------------------------------------------------------------------

http://www.myspace.com/kingdomofsorrow

Tabbed by: zunder
Email: jzunder@yahoo.com

Couldnt find any KoS tabs online so i decided to put this up. 
First tab and transcribed by ear so please be kind.

Tuning: BEADF#B

RIFF 1

B|--------------------------------------------------------------------------|
F|--------------------------------------------------------------------------|
D|--------------------------------------------------------------------------|
A|----2--x-x--2--x-x--6--x-3--x--2--x-x--x--x--x-x---2--x--6--x--3----------|
E|----2--x-x--2--x-x--6--x-3--x--2--x-x--x--x--x-x---2--x--6--x--3----------|
B|----0--x-x--0--x-x--4--x-1--x--0--x-x--x--x--x-x---0--x--4--x--1----------|

Ending:

B|----5brbrbr--------|

RIFF 2

|--------------------------------------------------------------------------|
|--------------------------------------------------------------------------|
|--------------------------------------------------------------------------|
|----x-x--2-2--x-x--5-5--x-x--3--7-7/8/5-----------------------------------|
|----x-x--2-2--x-x--5-5--x-x--3--7-7/8/5-----------------------------------|
|----x-x--0-0--x-x--3-3--x-x--1--5-5/6/3-----------------------------------|


RIFF 3


|----------------------------------------|
|---/9~--/8~--/5~------------------------|
|----------------------------------------|
|----------------------------------------|

chords played under riff 3

|--x-x-2-2--2---5/7----------------------------------------------|
|--x-x-2-2--2---5/7----------------------------------------------|
|--x-x-0-0--0---3/5----------------------------------------------|


*NEXT RIFF UNDER CONSTRUCTION* (will update when ive figured it out)

RIFF 4

|----------2-3-4-------------------------|
|---5-4-3--0-1-2-------------------------|
|---3-2-1--------------------------------|    repeat as necessary


BREAKDOWN

|------2-2--2-2-2--2-2-2--2-2-2---------------------|
|--3b--0-0--0-0-0--0-0-0--0-0-0---------------------|   repeat as necessary



************************************

| /   slide up
| \   slide down
| h   hammer-on
| p   pull-off
| ~   vibrato
| +   harmonic
| x   Mute note
| b   Bend
| pb  Pre-bend
| br  Bend release
| pbr Pre-bend release
| brb Bend release bend

************************************
Добавлено: 08.07.2012
Другие материалы по этой песне:
  • Аккорды и текст

Страница создана 08.07.2012
http://primanota.ru/kingdom-of-sorrow/behind-the-blackest-tears-chords.htm
Привет, Гость.
Предлагаем пройти революционный курс по гитаре.
Подарок от PrimaNota.Ru, забирай!