PrimaNota.ru - самый крупный в мире бесплатный архив песенных текстов, аккордов, табулатур и нот


Kingdom Of Giants - A Test Of My Survival - таба, видео

Регистрация Запомнить меня
Войти через:  Facebook Google Twitter Vk Yandex Mail.ru

Kingdom Of Giants - A Test Of My Survival - таба, видео

Печатать
Просмотров: 86
A Test Of My Survival by Kingdom Of Giants
Intro tab by Electrarookie
Tuning: Drop C

D------------------------------|
A-------------------------6-10-|
F----------------------6-7-----|
C-------------------7-8--------|
G-----5-7-8-5----7-8-----------|
C-0-0--------0-0---------------|
  . .        . .


D-----------------------------------|
A-----------------------------------|
F-----------------------------------|
C------------------10--8------------|
G-----8-10-12-8-----------8-10-12-8-|
C-8-8-----------8-8---8--8----------|
  . .           . .   .  .


D----------------------------------|
A----------------10-6--------------|
F---------------------7---6---10-7-|
C-----------------------8---7------|
G-----5-7-8-5----------------------|
C-0-0--------0-0-------------------|
  . .        . .

D-------------------------------|
A--------------------------6-10-|
F-----------------------6-7-----|
C--------------------7-8--------|
G-----8-10-12-8---7-8-----------|
C-8-8----------8-8--------------|
  . .          . .

Thanks for using my tab please rate it 5 stars and recommend it to others!
Добавлено: 16.06.2013
Другие материалы по этой песне:

Страница создана 16.06.2013
http://primanota.ru/kingdom-of-giants/a-test-of-my-survival-chords.htm
Привет, Гость.
Предлагаем пройти революционный курс по гитаре.
Подарок от PrimaNota.Ru, забирай!