PrimaNota.ru - самый крупный в мире бесплатный архив песенных текстов, аккордов, табулатур и нот


Kingdom Hearts - Simple Clean - бас-таба, видео

Регистрация Запомнить меня
Войти через:  Facebook Google Twitter Vk Yandex Mail.ru

Kingdom Hearts - Simple Clean - бас-таба, видео

Печатать
Просмотров: 111
(main intro/chourus)
|------------------------------|
|------------------------------|
|------4----2--1--0--1---------|    [repeat x3]
|---3--------------------------|

|------------------------------|
|------------------------------|
|-----------------3----4-------|
|---3--3--3--3----4------------|

|--------------------------------------------------------------------|
|---5--4---3--2--1--1---6--4---3--2--3--4--5h6-----------------------|
|-----------------------------------------------------------4h6------|
|--------------------------------------------------------------------|

|----------------------------------------|
|----------------------------------------|
|---5--6h7---7--7--5--4------------------|
|----------------------------------------|


(verse)
|-------------------------------------------|
|-------------------------------------------|
|-------------------------------------------|
|--1---1-1-1---1-1-1---1-1-1---1-1-1--------|

|------------------------------------------------|
|------------------------------------------------|
|------------------------------------------------|
|--1-1-1---1-1-1---1-1-1---1-1-1---1-1-0---------|

|------------------------------------------|
|------------------------------------------|
|------------------------------------------|
|--0-0-0---0-0-0---0-0-0---0-0-0-----------|

|-----------------------------------------|
|-----------------------------------------|
|-----------------------------------------|
|--0-0-0---0-0-0---0-0-0---0-0-1----------|

[repeat x2]
Добавлено: 11.03.2012
Другие материалы по этой песне:
  • Аккорды и текст

Страница создана 11.03.2012
http://primanota.ru/kingdom-hearts/simple-clean-chords.htm
Привет, Гость.
Предлагаем пройти революционный курс по гитаре.
Подарок от PrimaNota.Ru, забирай!