PrimaNota.ru - самый крупный в мире бесплатный архив песенных текстов, аккордов, табулатур и нот


Kingdom Hearts - Roxas - таба, бас-таба, видео

Регистрация Запомнить меня
Войти через:  Facebook Google Twitter Vk Yandex Mail.ru

Kingdom Hearts - Roxas - таба, бас-таба, видео

Печатать
Просмотров: 164
0:00
e|---------------------------2--------2--------2------|
b|---5--------5--------5------------------------------|
g|------4--2-----4--2-----4-----4--2-----4--2-----4---|
d|----------------------------------------------------|
a|----------------------------------------------------|
E|----------------------------------------------------|

0:09
e|---3-----3--2-----0------------------0----3---|
b|-------0------------3-1-3--------1-3--3-------|
g|----------------------------0-----------------|
d|----------------------------------------------|
a|----------------------------------------------|
E|----------------------------------------------|

0:21
e|---------------0----2----|
b|---1--0--1--3------------|
g|-------------------------|
d|-------------------------|
a|-------------------------|
E|-------------------------|

0:25
e|---3-----3--2-----0------------------0----3---|
b|-------0------------3-1-3--------1-3--3-------|
g|----------------------------0-----------------|
d|----------------------------------------------|
a|----------------------------------------------|
E|----------------------------------------------|

0:37
e|---------------0----2----|
b|---1--0--1--3------------|
g|-------------------------|
d|-------------------------|
a|-------------------------|
E|-------------------------|

0:41
e|---3-5-7-3-5--3-2-0---------------|
b|----------------------3---0-------|
g|------------------------------0---|
d|----------------------------------|
a|----------------------------------|
E|----------------------------------|

Добавлено: 18.06.2012
Другие материалы по этой песне:

Страница создана 07.04.2012
http://primanota.ru/kingdom-hearts/roxas-chords.htm
Привет, Гость.
Предлагаем пройти революционный курс по гитаре.
Подарок от PrimaNota.Ru, забирай!